ISO-10303-21;
HEADER;
/* Generated by software containing ST-Developer
 * from STEP Tools, Inc. (www.steptools.com) 
 */

FILE_DESCRIPTION(
/* description */ ('Profilo SP40T l = 100 mm'),
/* implementation_level */ '2;1');

FILE_NAME(
/* name */ 'C:\\Users\\Stefan.Nesic\\Desktop\\01010STEP\\SP40T.stp',
/* time_stamp */ '2022-06-20T10:06:35+02:00',
/* author */ ('MarcoD'),
/* organization */ (''),
/* preprocessor_version */ 'ST-DEVELOPER v18.1',
/* originating_system */ 'Autodesk Inventor 2021',
/* authorisation */ '');

FILE_SCHEMA (('AUTOMOTIVE_DESIGN { 1 0 10303 214 3 1 1 }'));
ENDSEC;

DATA;
#10=MECHANICAL_DESIGN_GEOMETRIC_PRESENTATION_REPRESENTATION('',(#13),#131);
#11=SHAPE_REPRESENTATION_RELATIONSHIP('SRR','None',#138,#12);
#12=ADVANCED_BREP_SHAPE_REPRESENTATION('',(#14),#130);
#13=STYLED_ITEM('',(#147),#14);
#14=MANIFOLD_SOLID_BREP('Solido1',#65);
#15=LINE('',#122,#17);
#16=LINE('',#126,#18);
#17=VECTOR('',#105,17.);
#18=VECTOR('',#110,20.);
#19=CYLINDRICAL_SURFACE('',#88,17.);
#20=CYLINDRICAL_SURFACE('',#90,20.);
#21=FACE_BOUND('',#28,.T.);
#22=FACE_BOUND('',#32,.T.);
#23=FACE_OUTER_BOUND('',#27,.T.);
#24=FACE_OUTER_BOUND('',#29,.T.);
#25=FACE_OUTER_BOUND('',#30,.T.);
#26=FACE_OUTER_BOUND('',#31,.T.);
#27=EDGE_LOOP('',(#47));
#28=EDGE_LOOP('',(#48));
#29=EDGE_LOOP('',(#49,#50,#51,#52));
#30=EDGE_LOOP('',(#53,#54,#55,#56));
#31=EDGE_LOOP('',(#57));
#32=EDGE_LOOP('',(#58));
#33=CIRCLE('',#86,20.);
#34=CIRCLE('',#87,17.);
#35=CIRCLE('',#89,17.);
#36=CIRCLE('',#91,20.);
#37=VERTEX_POINT('',#115);
#38=VERTEX_POINT('',#117);
#39=VERTEX_POINT('',#120);
#40=VERTEX_POINT('',#124);
#41=EDGE_CURVE('',#37,#37,#33,.T.);
#42=EDGE_CURVE('',#38,#38,#34,.T.);
#43=EDGE_CURVE('',#39,#39,#35,.T.);
#44=EDGE_CURVE('',#39,#38,#15,.T.);
#45=EDGE_CURVE('',#40,#40,#36,.T.);
#46=EDGE_CURVE('',#40,#37,#16,.T.);
#47=ORIENTED_EDGE('',*,*,#41,.T.);
#48=ORIENTED_EDGE('',*,*,#42,.T.);
#49=ORIENTED_EDGE('',*,*,#43,.F.);
#50=ORIENTED_EDGE('',*,*,#44,.T.);
#51=ORIENTED_EDGE('',*,*,#42,.F.);
#52=ORIENTED_EDGE('',*,*,#44,.F.);
#53=ORIENTED_EDGE('',*,*,#45,.F.);
#54=ORIENTED_EDGE('',*,*,#46,.T.);
#55=ORIENTED_EDGE('',*,*,#41,.F.);
#56=ORIENTED_EDGE('',*,*,#46,.F.);
#57=ORIENTED_EDGE('',*,*,#45,.T.);
#58=ORIENTED_EDGE('',*,*,#43,.T.);
#59=PLANE('',#85);
#60=PLANE('',#92);
#61=ADVANCED_FACE('',(#23,#21),#59,.F.);
#62=ADVANCED_FACE('',(#24),#19,.F.);
#63=ADVANCED_FACE('',(#25),#20,.T.);
#64=ADVANCED_FACE('',(#26,#22),#60,.T.);
#65=CLOSED_SHELL('',(#61,#62,#63,#64));
#66=DERIVED_UNIT_ELEMENT(#68,1.);
#67=DERIVED_UNIT_ELEMENT(#133,-3.);
#68=(
MASS_UNIT()
NAMED_UNIT(*)
SI_UNIT($,.GRAM.)
);
#69=DERIVED_UNIT((#66,#67));
#70=MEASURE_REPRESENTATION_ITEM('density measure',
POSITIVE_RATIO_MEASURE(2.7),#69);
#71=PROPERTY_DEFINITION_REPRESENTATION(#76,#73);
#72=PROPERTY_DEFINITION_REPRESENTATION(#77,#74);
#73=REPRESENTATION('material name',(#75),#130);
#74=REPRESENTATION('density',(#70),#130);
#75=DESCRIPTIVE_REPRESENTATION_ITEM('Alluminio 6061','Alluminio 6061');
#76=PROPERTY_DEFINITION('material property','material name',#140);
#77=PROPERTY_DEFINITION('material property','density of part',#140);
#78=DATE_TIME_ROLE('creation_date');
#79=APPLIED_DATE_AND_TIME_ASSIGNMENT(#80,#78,(#140));
#80=DATE_AND_TIME(#81,#82);
#81=CALENDAR_DATE(2022,15,6);
#82=LOCAL_TIME(0,0,0.,#83);
#83=COORDINATED_UNIVERSAL_TIME_OFFSET(0,0,.BEHIND.);
#84=AXIS2_PLACEMENT_3D('placement',#113,#93,#94);
#85=AXIS2_PLACEMENT_3D('',#114,#95,#96);
#86=AXIS2_PLACEMENT_3D('',#116,#97,#98);
#87=AXIS2_PLACEMENT_3D('',#118,#99,#100);
#88=AXIS2_PLACEMENT_3D('',#119,#101,#102);
#89=AXIS2_PLACEMENT_3D('',#121,#103,#104);
#90=AXIS2_PLACEMENT_3D('',#123,#106,#107);
#91=AXIS2_PLACEMENT_3D('',#125,#108,#109);
#92=AXIS2_PLACEMENT_3D('',#127,#111,#112);
#93=DIRECTION('axis',(0.,0.,1.));
#94=DIRECTION('refdir',(1.,0.,0.));
#95=DIRECTION('center_axis',(1.,0.,0.));
#96=DIRECTION('ref_axis',(0.,0.,-1.));
#97=DIRECTION('center_axis',(-1.,0.,0.));
#98=DIRECTION('ref_axis',(0.,1.,0.));
#99=DIRECTION('center_axis',(1.,0.,0.));
#100=DIRECTION('ref_axis',(0.,-1.,0.));
#101=DIRECTION('center_axis',(1.,0.,0.));
#102=DIRECTION('ref_axis',(0.,-1.,0.));
#103=DIRECTION('center_axis',(-1.,0.,0.));
#104=DIRECTION('ref_axis',(0.,-1.,0.));
#105=DIRECTION('',(-1.,0.,0.));
#106=DIRECTION('center_axis',(1.,0.,0.));
#107=DIRECTION('ref_axis',(0.,1.,0.));
#108=DIRECTION('center_axis',(1.,0.,0.));
#109=DIRECTION('ref_axis',(0.,1.,0.));
#110=DIRECTION('',(-1.,0.,0.));
#111=DIRECTION('center_axis',(1.,0.,0.));
#112=DIRECTION('ref_axis',(0.,0.,-1.));
#113=CARTESIAN_POINT('',(0.,0.,0.));
#114=CARTESIAN_POINT('Origin',(-50.,0.,0.));
#115=CARTESIAN_POINT('',(-50.,-20.,-2.44929359829471E-15));
#116=CARTESIAN_POINT('Origin',(-50.,0.,0.));
#117=CARTESIAN_POINT('',(-50.,17.,2.0818995585505E-15));
#118=CARTESIAN_POINT('Origin',(-50.,0.,0.));
#119=CARTESIAN_POINT('Origin',(0.,0.,0.));
#120=CARTESIAN_POINT('',(50.,17.,2.0818995585505E-15));
#121=CARTESIAN_POINT('Origin',(50.,0.,0.));
#122=CARTESIAN_POINT('',(0.,17.,2.0818995585505E-15));
#123=CARTESIAN_POINT('Origin',(0.,0.,0.));
#124=CARTESIAN_POINT('',(50.,-20.,-2.44929359829471E-15));
#125=CARTESIAN_POINT('Origin',(50.,0.,0.));
#126=CARTESIAN_POINT('',(0.,-20.,-2.44929359829471E-15));
#127=CARTESIAN_POINT('Origin',(50.,0.,0.));
#128=UNCERTAINTY_MEASURE_WITH_UNIT(LENGTH_MEASURE(0.01),#132,
'DISTANCE_ACCURACY_VALUE',
'Maximum model space distance between geometric entities at asserted c
onnectivities');
#129=UNCERTAINTY_MEASURE_WITH_UNIT(LENGTH_MEASURE(0.01),#132,
'DISTANCE_ACCURACY_VALUE',
'Maximum model space distance between geometric entities at asserted c
onnectivities');
#130=(
GEOMETRIC_REPRESENTATION_CONTEXT(3)
GLOBAL_UNCERTAINTY_ASSIGNED_CONTEXT((#128))
GLOBAL_UNIT_ASSIGNED_CONTEXT((#132,#134,#135))
REPRESENTATION_CONTEXT('','3D')
);
#131=(
GEOMETRIC_REPRESENTATION_CONTEXT(3)
GLOBAL_UNCERTAINTY_ASSIGNED_CONTEXT((#129))
GLOBAL_UNIT_ASSIGNED_CONTEXT((#132,#134,#135))
REPRESENTATION_CONTEXT('','3D')
);
#132=(
LENGTH_UNIT()
NAMED_UNIT(*)
SI_UNIT(.MILLI.,.METRE.)
);
#133=(
LENGTH_UNIT()
NAMED_UNIT(*)
SI_UNIT(.CENTI.,.METRE.)
);
#134=(
NAMED_UNIT(*)
PLANE_ANGLE_UNIT()
SI_UNIT($,.RADIAN.)
);
#135=(
NAMED_UNIT(*)
SI_UNIT($,.STERADIAN.)
SOLID_ANGLE_UNIT()
);
#136=SHAPE_DEFINITION_REPRESENTATION(#137,#138);
#137=PRODUCT_DEFINITION_SHAPE('',$,#140);
#138=SHAPE_REPRESENTATION('',(#84),#130);
#139=PRODUCT_DEFINITION_CONTEXT('part definition',#144,'design');
#140=PRODUCT_DEFINITION('SP40T-02-02-100','SP40T-02-02-100',#141,#139);
#141=PRODUCT_DEFINITION_FORMATION('A00',$,#146);
#142=PRODUCT_RELATED_PRODUCT_CATEGORY('SP40T-02-02-100',
'SP40T-02-02-100',(#146));
#143=APPLICATION_PROTOCOL_DEFINITION('international standard',
'automotive_design',2009,#144);
#144=APPLICATION_CONTEXT(
'Core Data for Automotive Mechanical Design Process');
#145=PRODUCT_CONTEXT('part definition',#144,'mechanical');
#146=PRODUCT('SP40T-02-02-100','SP40T-02-02-100',
'Profilo SP40T l = 100 mm',(#145));
#147=PRESENTATION_STYLE_ASSIGNMENT((#148));
#148=SURFACE_STYLE_USAGE(.BOTH.,#151);
#149=SURFACE_STYLE_RENDERING_WITH_PROPERTIES($,#155,(#150));
#150=SURFACE_STYLE_TRANSPARENT(0.);
#151=SURFACE_SIDE_STYLE('',(#152,#149));
#152=SURFACE_STYLE_FILL_AREA(#153);
#153=FILL_AREA_STYLE('',(#154));
#154=FILL_AREA_STYLE_COLOUR('',#155);
#155=COLOUR_RGB('',0.996078431372549,0.996078431372549,1.);
ENDSEC;
END-ISO-10303-21;
