ISO-10303-21;
HEADER;
/* Generated by software containing ST-Developer
 * from STEP Tools, Inc. (www.steptools.com) 
 */

FILE_DESCRIPTION(
/* description */ ('Rondella inox per viti svasate d.5 A4'),
/* implementation_level */ '2;1');

FILE_NAME(
/* name */ 'C:\\Users\\marco.dallariva\\Desktop\\SBW05-14.stp',
/* time_stamp */ '2022-11-14T18:32:04+01:00',
/* author */ ('marco.dallariva'),
/* organization */ (''),
/* preprocessor_version */ 'ST-DEVELOPER v18.1',
/* originating_system */ 'Autodesk Inventor 2021',
/* authorisation */ '');

FILE_SCHEMA (('AUTOMOTIVE_DESIGN { 1 0 10303 214 3 1 1 }'));
ENDSEC;

DATA;
#10=MECHANICAL_DESIGN_GEOMETRIC_PRESENTATION_REPRESENTATION('',(#13),#156);
#11=SHAPE_REPRESENTATION_RELATIONSHIP('SRR','None',#163,#12);
#12=ADVANCED_BREP_SHAPE_REPRESENTATION('',(#14),#155);
#13=STYLED_ITEM('',(#172),#14);
#14=MANIFOLD_SOLID_BREP('Solido1',#79);
#15=FACE_BOUND('',#28,.T.);
#16=FACE_BOUND('',#31,.T.);
#17=PLANE('',#104);
#18=PLANE('',#108);
#19=CYLINDRICAL_SURFACE('',#102,2.75);
#20=FACE_OUTER_BOUND('',#25,.T.);
#21=FACE_OUTER_BOUND('',#26,.T.);
#22=FACE_OUTER_BOUND('',#27,.T.);
#23=FACE_OUTER_BOUND('',#29,.T.);
#24=FACE_OUTER_BOUND('',#30,.T.);
#25=EDGE_LOOP('',(#56,#57,#58,#59));
#26=EDGE_LOOP('',(#60,#61,#62,#63));
#27=EDGE_LOOP('',(#64));
#28=EDGE_LOOP('',(#65));
#29=EDGE_LOOP('',(#66,#67,#68,#69));
#30=EDGE_LOOP('',(#70));
#31=EDGE_LOOP('',(#71));
#32=LINE('',#139,#35);
#33=LINE('',#143,#36);
#34=LINE('',#151,#37);
#35=VECTOR('',#115,3.975);
#36=VECTOR('',#120,2.75);
#37=VECTOR('',#131,6.375);
#38=CIRCLE('',#100,5.2);
#39=CIRCLE('',#101,2.75);
#40=CIRCLE('',#103,2.75);
#41=CIRCLE('',#105,5.75);
#42=CIRCLE('',#107,7.);
#43=VERTEX_POINT('',#136);
#44=VERTEX_POINT('',#138);
#45=VERTEX_POINT('',#142);
#46=VERTEX_POINT('',#146);
#47=VERTEX_POINT('',#149);
#48=EDGE_CURVE('',#43,#43,#38,.T.);
#49=EDGE_CURVE('',#43,#44,#32,.T.);
#50=EDGE_CURVE('',#44,#44,#39,.T.);
#51=EDGE_CURVE('',#44,#45,#33,.T.);
#52=EDGE_CURVE('',#45,#45,#40,.T.);
#53=EDGE_CURVE('',#46,#46,#41,.T.);
#54=EDGE_CURVE('',#47,#47,#42,.T.);
#55=EDGE_CURVE('',#47,#46,#34,.T.);
#56=ORIENTED_EDGE('',*,*,#48,.F.);
#57=ORIENTED_EDGE('',*,*,#49,.T.);
#58=ORIENTED_EDGE('',*,*,#50,.F.);
#59=ORIENTED_EDGE('',*,*,#49,.F.);
#60=ORIENTED_EDGE('',*,*,#50,.T.);
#61=ORIENTED_EDGE('',*,*,#51,.T.);
#62=ORIENTED_EDGE('',*,*,#52,.F.);
#63=ORIENTED_EDGE('',*,*,#51,.F.);
#64=ORIENTED_EDGE('',*,*,#53,.F.);
#65=ORIENTED_EDGE('',*,*,#48,.T.);
#66=ORIENTED_EDGE('',*,*,#54,.F.);
#67=ORIENTED_EDGE('',*,*,#55,.T.);
#68=ORIENTED_EDGE('',*,*,#53,.T.);
#69=ORIENTED_EDGE('',*,*,#55,.F.);
#70=ORIENTED_EDGE('',*,*,#54,.T.);
#71=ORIENTED_EDGE('',*,*,#52,.T.);
#72=CONICAL_SURFACE('',#99,3.975,0.785398163397448);
#73=CONICAL_SURFACE('',#106,6.375,0.394791119699761);
#74=ADVANCED_FACE('',(#20),#72,.F.);
#75=ADVANCED_FACE('',(#21),#19,.F.);
#76=ADVANCED_FACE('',(#22,#15),#17,.T.);
#77=ADVANCED_FACE('',(#23),#73,.T.);
#78=ADVANCED_FACE('',(#24,#16),#18,.T.);
#79=CLOSED_SHELL('',(#74,#75,#76,#77,#78));
#80=DERIVED_UNIT_ELEMENT(#82,1.);
#81=DERIVED_UNIT_ELEMENT(#158,-3.);
#82=(
MASS_UNIT()
NAMED_UNIT(*)
SI_UNIT($,.GRAM.)
);
#83=DERIVED_UNIT((#80,#81));
#84=MEASURE_REPRESENTATION_ITEM('density measure',
POSITIVE_RATIO_MEASURE(8.),#83);
#85=PROPERTY_DEFINITION_REPRESENTATION(#90,#87);
#86=PROPERTY_DEFINITION_REPRESENTATION(#91,#88);
#87=REPRESENTATION('material name',(#89),#155);
#88=REPRESENTATION('density',(#84),#155);
#89=DESCRIPTIVE_REPRESENTATION_ITEM('Acciaio inossidabile',
'Acciaio inossidabile');
#90=PROPERTY_DEFINITION('material property','material name',#165);
#91=PROPERTY_DEFINITION('material property','density of part',#165);
#92=DATE_TIME_ROLE('creation_date');
#93=APPLIED_DATE_AND_TIME_ASSIGNMENT(#94,#92,(#165));
#94=DATE_AND_TIME(#95,#96);
#95=CALENDAR_DATE(2019,8,3);
#96=LOCAL_TIME(0,0,0.,#97);
#97=COORDINATED_UNIVERSAL_TIME_OFFSET(0,0,.BEHIND.);
#98=AXIS2_PLACEMENT_3D('placement',#134,#109,#110);
#99=AXIS2_PLACEMENT_3D('',#135,#111,#112);
#100=AXIS2_PLACEMENT_3D('',#137,#113,#114);
#101=AXIS2_PLACEMENT_3D('',#140,#116,#117);
#102=AXIS2_PLACEMENT_3D('',#141,#118,#119);
#103=AXIS2_PLACEMENT_3D('',#144,#121,#122);
#104=AXIS2_PLACEMENT_3D('',#145,#123,#124);
#105=AXIS2_PLACEMENT_3D('',#147,#125,#126);
#106=AXIS2_PLACEMENT_3D('',#148,#127,#128);
#107=AXIS2_PLACEMENT_3D('',#150,#129,#130);
#108=AXIS2_PLACEMENT_3D('',#152,#132,#133);
#109=DIRECTION('axis',(0.,0.,1.));
#110=DIRECTION('refdir',(1.,0.,0.));
#111=DIRECTION('center_axis',(-9.25185853854297E-17,1.,0.));
#112=DIRECTION('ref_axis',(1.,9.25185853854297E-17,0.));
#113=DIRECTION('center_axis',(9.25185853854297E-17,-1.,0.));
#114=DIRECTION('ref_axis',(1.,9.25185853854297E-17,0.));
#115=DIRECTION('',(0.707106781186548,-0.707106781186548,-8.65956056235493E-17));
#116=DIRECTION('center_axis',(-9.25185853854297E-17,1.,0.));
#117=DIRECTION('ref_axis',(1.,9.25185853854297E-17,0.));
#118=DIRECTION('center_axis',(-9.25185853854297E-17,1.,0.));
#119=DIRECTION('ref_axis',(1.,9.25185853854297E-17,0.));
#120=DIRECTION('',(9.25185853854297E-17,-1.,0.));
#121=DIRECTION('center_axis',(-9.25185853854297E-17,1.,0.));
#122=DIRECTION('ref_axis',(1.,9.25185853854297E-17,0.));
#123=DIRECTION('center_axis',(-9.25185853854297E-17,1.,0.));
#124=DIRECTION('ref_axis',(0.,0.,1.));
#125=DIRECTION('center_axis',(9.25185853854297E-17,-1.,0.));
#126=DIRECTION('ref_axis',(1.,9.25185853854297E-17,0.));
#127=DIRECTION('center_axis',(9.25185853854297E-17,-1.,0.));
#128=DIRECTION('ref_axis',(1.,1.82578387624717E-16,0.));
#129=DIRECTION('center_axis',(9.25185853854297E-17,-1.,0.));
#130=DIRECTION('ref_axis',(1.,9.25185853854297E-17,0.));
#131=DIRECTION('',(0.384615384615384,0.923076923076923,4.71017999672059E-17));
#132=DIRECTION('center_axis',(9.25185853854297E-17,-1.,0.));
#133=DIRECTION('ref_axis',(0.,0.,-1.));
#134=CARTESIAN_POINT('',(0.,0.,0.));
#135=CARTESIAN_POINT('Origin',(-2.54426109809931E-17,0.275,0.));
#136=CARTESIAN_POINT('',(-5.2,1.5,6.36816335556624E-16));
#137=CARTESIAN_POINT('Origin',(-1.38777878078145E-16,1.5,0.));
#138=CARTESIAN_POINT('',(-2.75,-0.950000000000001,3.36777869765522E-16));
#139=CARTESIAN_POINT('',(-3.975,0.274999999999999,4.86797102661073E-16));
#140=CARTESIAN_POINT('Origin',(8.78926561161583E-17,-0.950000000000001,
0.));
#141=CARTESIAN_POINT('Origin',(1.71390535046637E-15,-18.5249843945008,0.));
#142=CARTESIAN_POINT('',(-2.75,-1.5,3.36777869765522E-16));
#143=CARTESIAN_POINT('',(-2.75,-18.5249843945008,3.36777869765522E-16));
#144=CARTESIAN_POINT('Origin',(1.38777878078144E-16,-1.5,0.));
#145=CARTESIAN_POINT('Origin',(5.75,1.5,0.));
#146=CARTESIAN_POINT('',(-5.75,1.5,-7.04171909509728E-16));
#147=CARTESIAN_POINT('Origin',(-1.38777878078145E-16,1.5,0.));
#148=CARTESIAN_POINT('Origin',(3.08148791101958E-32,-2.77555756156289E-16,
0.));
#149=CARTESIAN_POINT('',(-7.,-1.5,-8.57252759403147E-16));
#150=CARTESIAN_POINT('Origin',(1.38777878078145E-16,-1.5,0.));
#151=CARTESIAN_POINT('',(-6.375,-1.44149297726386E-15,-7.80712334456438E-16));
#152=CARTESIAN_POINT('Origin',(1.38777878078145E-16,-1.5,0.));
#153=UNCERTAINTY_MEASURE_WITH_UNIT(LENGTH_MEASURE(0.01),#157,
'DISTANCE_ACCURACY_VALUE',
'Maximum model space distance between geometric entities at asserted c
onnectivities');
#154=UNCERTAINTY_MEASURE_WITH_UNIT(LENGTH_MEASURE(0.01),#157,
'DISTANCE_ACCURACY_VALUE',
'Maximum model space distance between geometric entities at asserted c
onnectivities');
#155=(
GEOMETRIC_REPRESENTATION_CONTEXT(3)
GLOBAL_UNCERTAINTY_ASSIGNED_CONTEXT((#153))
GLOBAL_UNIT_ASSIGNED_CONTEXT((#157,#159,#160))
REPRESENTATION_CONTEXT('','3D')
);
#156=(
GEOMETRIC_REPRESENTATION_CONTEXT(3)
GLOBAL_UNCERTAINTY_ASSIGNED_CONTEXT((#154))
GLOBAL_UNIT_ASSIGNED_CONTEXT((#157,#159,#160))
REPRESENTATION_CONTEXT('','3D')
);
#157=(
LENGTH_UNIT()
NAMED_UNIT(*)
SI_UNIT(.MILLI.,.METRE.)
);
#158=(
LENGTH_UNIT()
NAMED_UNIT(*)
SI_UNIT(.CENTI.,.METRE.)
);
#159=(
NAMED_UNIT(*)
PLANE_ANGLE_UNIT()
SI_UNIT($,.RADIAN.)
);
#160=(
NAMED_UNIT(*)
SI_UNIT($,.STERADIAN.)
SOLID_ANGLE_UNIT()
);
#161=SHAPE_DEFINITION_REPRESENTATION(#162,#163);
#162=PRODUCT_DEFINITION_SHAPE('',$,#165);
#163=SHAPE_REPRESENTATION('',(#98),#155);
#164=PRODUCT_DEFINITION_CONTEXT('part definition',#169,'design');
#165=PRODUCT_DEFINITION('SBW05-14','SBW05-14',#166,#164);
#166=PRODUCT_DEFINITION_FORMATION('A00',$,#171);
#167=PRODUCT_RELATED_PRODUCT_CATEGORY('SBW05-14','SBW05-14',(#171));
#168=APPLICATION_PROTOCOL_DEFINITION('international standard',
'automotive_design',2009,#169);
#169=APPLICATION_CONTEXT(
'Core Data for Automotive Mechanical Design Process');
#170=PRODUCT_CONTEXT('part definition',#169,'mechanical');
#171=PRODUCT('SBW05-14','SBW05-14',
'Rondella inox per viti svasate d.5 A4',(#170));
#172=PRESENTATION_STYLE_ASSIGNMENT((#173));
#173=SURFACE_STYLE_USAGE(.BOTH.,#176);
#174=SURFACE_STYLE_RENDERING_WITH_PROPERTIES($,#180,(#175));
#175=SURFACE_STYLE_TRANSPARENT(0.);
#176=SURFACE_SIDE_STYLE('',(#177,#174));
#177=SURFACE_STYLE_FILL_AREA(#178);
#178=FILL_AREA_STYLE('',(#179));
#179=FILL_AREA_STYLE_COLOUR('',#180);
#180=COLOUR_RGB('',0.745098039215686,0.737254901960784,0.729411764705882);
ENDSEC;
END-ISO-10303-21;
