ISO-10303-21;
HEADER;
/* Generated by software containing ST-Developer
 * from STEP Tools, Inc. (www.steptools.com) 
 */

FILE_DESCRIPTION(
/* description */ ('Piastra angolare girevole serie 30'),
/* implementation_level */ '2;1');

FILE_NAME(
/* name */ 'C:\\omnitec\\Desktop\\Accessori Complementari\\SAP30.stp',
/* time_stamp */ '2021-02-19T15:02:40+01:00',
/* author */ ('omnitec'),
/* organization */ ('Microsoft'),
/* preprocessor_version */ 'ST-DEVELOPER v18.1',
/* originating_system */ 'Autodesk Inventor 2021',
/* authorisation */ '');

FILE_SCHEMA (('AUTOMOTIVE_DESIGN { 1 0 10303 214 3 1 1 }'));
ENDSEC;

DATA;
#10=MECHANICAL_DESIGN_GEOMETRIC_PRESENTATION_REPRESENTATION('',(#13),#588);
#11=SHAPE_REPRESENTATION_RELATIONSHIP('SRR','None',#595,#12);
#12=ADVANCED_BREP_SHAPE_REPRESENTATION('',(#14),#587);
#13=STYLED_ITEM('',(#604),#14);
#14=MANIFOLD_SOLID_BREP('Solido1',#334);
#15=FACE_BOUND('',#58,.T.);
#16=FACE_BOUND('',#59,.T.);
#17=FACE_BOUND('',#61,.T.);
#18=FACE_BOUND('',#62,.T.);
#19=FACE_BOUND('',#64,.T.);
#20=FACE_BOUND('',#65,.T.);
#21=FACE_BOUND('',#67,.T.);
#22=FACE_BOUND('',#68,.T.);
#23=PLANE('',#363);
#24=PLANE('',#369);
#25=PLANE('',#384);
#26=PLANE('',#385);
#27=PLANE('',#386);
#28=PLANE('',#387);
#29=PLANE('',#388);
#30=FACE_OUTER_BOUND('',#47,.T.);
#31=FACE_OUTER_BOUND('',#48,.T.);
#32=FACE_OUTER_BOUND('',#49,.T.);
#33=FACE_OUTER_BOUND('',#50,.T.);
#34=FACE_OUTER_BOUND('',#51,.T.);
#35=FACE_OUTER_BOUND('',#52,.T.);
#36=FACE_OUTER_BOUND('',#53,.T.);
#37=FACE_OUTER_BOUND('',#54,.T.);
#38=FACE_OUTER_BOUND('',#55,.T.);
#39=FACE_OUTER_BOUND('',#56,.T.);
#40=FACE_OUTER_BOUND('',#57,.T.);
#41=FACE_OUTER_BOUND('',#60,.T.);
#42=FACE_OUTER_BOUND('',#63,.T.);
#43=FACE_OUTER_BOUND('',#66,.T.);
#44=FACE_OUTER_BOUND('',#69,.T.);
#45=FACE_OUTER_BOUND('',#70,.T.);
#46=FACE_OUTER_BOUND('',#71,.T.);
#47=EDGE_LOOP('',(#217,#218,#219,#220));
#48=EDGE_LOOP('',(#221,#222,#223,#224));
#49=EDGE_LOOP('',(#225,#226,#227,#228));
#50=EDGE_LOOP('',(#229,#230,#231,#232,#233,#234,#235,#236));
#51=EDGE_LOOP('',(#237,#238,#239,#240));
#52=EDGE_LOOP('',(#241,#242,#243,#244,#245,#246,#247,#248));
#53=EDGE_LOOP('',(#249,#250,#251,#252));
#54=EDGE_LOOP('',(#253,#254,#255,#256));
#55=EDGE_LOOP('',(#257,#258,#259,#260));
#56=EDGE_LOOP('',(#261,#262,#263,#264));
#57=EDGE_LOOP('',(#265,#266,#267,#268));
#58=EDGE_LOOP('',(#269,#270,#271,#272));
#59=EDGE_LOOP('',(#273));
#60=EDGE_LOOP('',(#274,#275,#276,#277));
#61=EDGE_LOOP('',(#278,#279,#280,#281));
#62=EDGE_LOOP('',(#282));
#63=EDGE_LOOP('',(#283,#284,#285,#286));
#64=EDGE_LOOP('',(#287));
#65=EDGE_LOOP('',(#288));
#66=EDGE_LOOP('',(#289,#290,#291,#292));
#67=EDGE_LOOP('',(#293));
#68=EDGE_LOOP('',(#294));
#69=EDGE_LOOP('',(#295,#296,#297,#298));
#70=EDGE_LOOP('',(#299,#300,#301,#302));
#71=EDGE_LOOP('',(#303,#304,#305,#306));
#72=LINE('',#497,#97);
#73=LINE('',#503,#98);
#74=LINE('',#509,#99);
#75=LINE('',#514,#100);
#76=LINE('',#518,#101);
#77=LINE('',#520,#102);
#78=LINE('',#522,#103);
#79=LINE('',#526,#104);
#80=LINE('',#527,#105);
#81=LINE('',#532,#106);
#82=LINE('',#536,#107);
#83=LINE('',#540,#108);
#84=LINE('',#542,#109);
#85=LINE('',#544,#110);
#86=LINE('',#547,#111);
#87=LINE('',#553,#112);
#88=LINE('',#556,#113);
#89=LINE('',#561,#114);
#90=LINE('',#567,#115);
#91=LINE('',#573,#116);
#92=LINE('',#575,#117);
#93=LINE('',#577,#118);
#94=LINE('',#578,#119);
#95=LINE('',#580,#120);
#96=LINE('',#581,#121);
#97=VECTOR('',#397,3.49999999999995);
#98=VECTOR('',#404,3.49999999999995);
#99=VECTOR('',#411,3.50000000000006);
#100=VECTOR('',#416,1000.);
#101=VECTOR('',#419,1000.);
#102=VECTOR('',#420,1000.);
#103=VECTOR('',#421,1000.);
#104=VECTOR('',#424,1000.);
#105=VECTOR('',#425,1000.);
#106=VECTOR('',#430,1000.);
#107=VECTOR('',#435,1000.);
#108=VECTOR('',#438,1000.);
#109=VECTOR('',#439,1000.);
#110=VECTOR('',#440,1000.);
#111=VECTOR('',#443,1000.);
#112=VECTOR('',#448,1000.);
#113=VECTOR('',#451,1000.);
#114=VECTOR('',#456,1000.);
#115=VECTOR('',#463,1000.);
#116=VECTOR('',#474,1000.);
#117=VECTOR('',#477,1000.);
#118=VECTOR('',#480,1000.);
#119=VECTOR('',#481,1000.);
#120=VECTOR('',#484,1000.);
#121=VECTOR('',#485,1000.);
#122=CIRCLE('',#355,3.49999999999995);
#123=CIRCLE('',#356,3.49999999999995);
#124=CIRCLE('',#358,3.49999999999995);
#125=CIRCLE('',#359,3.49999999999995);
#126=CIRCLE('',#361,3.50000000000006);
#127=CIRCLE('',#362,3.50000000000006);
#128=CIRCLE('',#364,5.);
#129=CIRCLE('',#365,2.);
#130=CIRCLE('',#367,50.);
#131=CIRCLE('',#368,50.);
#132=CIRCLE('',#370,5.);
#133=CIRCLE('',#371,2.);
#134=CIRCLE('',#373,3.49999999999995);
#135=CIRCLE('',#374,3.49999999999995);
#136=CIRCLE('',#376,36.5);
#137=CIRCLE('',#377,36.5);
#138=CIRCLE('',#379,3.50000000000017);
#139=CIRCLE('',#380,3.50000000000017);
#140=CIRCLE('',#382,43.5000000000002);
#141=CIRCLE('',#383,43.5000000000002);
#142=VERTEX_POINT('',#494);
#143=VERTEX_POINT('',#496);
#144=VERTEX_POINT('',#500);
#145=VERTEX_POINT('',#502);
#146=VERTEX_POINT('',#506);
#147=VERTEX_POINT('',#508);
#148=VERTEX_POINT('',#512);
#149=VERTEX_POINT('',#513);
#150=VERTEX_POINT('',#515);
#151=VERTEX_POINT('',#517);
#152=VERTEX_POINT('',#519);
#153=VERTEX_POINT('',#521);
#154=VERTEX_POINT('',#523);
#155=VERTEX_POINT('',#525);
#156=VERTEX_POINT('',#529);
#157=VERTEX_POINT('',#531);
#158=VERTEX_POINT('',#535);
#159=VERTEX_POINT('',#537);
#160=VERTEX_POINT('',#539);
#161=VERTEX_POINT('',#541);
#162=VERTEX_POINT('',#543);
#163=VERTEX_POINT('',#545);
#164=VERTEX_POINT('',#549);
#165=VERTEX_POINT('',#550);
#166=VERTEX_POINT('',#552);
#167=VERTEX_POINT('',#554);
#168=VERTEX_POINT('',#558);
#169=VERTEX_POINT('',#560);
#170=VERTEX_POINT('',#564);
#171=VERTEX_POINT('',#566);
#172=EDGE_CURVE('',#142,#142,#122,.T.);
#173=EDGE_CURVE('',#142,#143,#72,.T.);
#174=EDGE_CURVE('',#143,#143,#123,.T.);
#175=EDGE_CURVE('',#144,#144,#124,.T.);
#176=EDGE_CURVE('',#144,#145,#73,.T.);
#177=EDGE_CURVE('',#145,#145,#125,.T.);
#178=EDGE_CURVE('',#146,#146,#126,.T.);
#179=EDGE_CURVE('',#146,#147,#74,.T.);
#180=EDGE_CURVE('',#147,#147,#127,.T.);
#181=EDGE_CURVE('',#148,#149,#75,.T.);
#182=EDGE_CURVE('',#149,#150,#128,.T.);
#183=EDGE_CURVE('',#151,#150,#76,.T.);
#184=EDGE_CURVE('',#152,#151,#77,.T.);
#185=EDGE_CURVE('',#152,#153,#78,.T.);
#186=EDGE_CURVE('',#153,#154,#129,.T.);
#187=EDGE_CURVE('',#155,#154,#79,.T.);
#188=EDGE_CURVE('',#148,#155,#80,.T.);
#189=EDGE_CURVE('',#151,#156,#130,.T.);
#190=EDGE_CURVE('',#157,#156,#81,.T.);
#191=EDGE_CURVE('',#152,#157,#131,.T.);
#192=EDGE_CURVE('',#158,#156,#82,.T.);
#193=EDGE_CURVE('',#158,#159,#132,.T.);
#194=EDGE_CURVE('',#160,#159,#83,.T.);
#195=EDGE_CURVE('',#161,#160,#84,.T.);
#196=EDGE_CURVE('',#161,#162,#85,.T.);
#197=EDGE_CURVE('',#162,#163,#133,.T.);
#198=EDGE_CURVE('',#163,#157,#86,.T.);
#199=EDGE_CURVE('',#164,#165,#134,.T.);
#200=EDGE_CURVE('',#166,#164,#87,.T.);
#201=EDGE_CURVE('',#166,#167,#135,.T.);
#202=EDGE_CURVE('',#167,#165,#88,.T.);
#203=EDGE_CURVE('',#164,#168,#136,.T.);
#204=EDGE_CURVE('',#169,#168,#89,.T.);
#205=EDGE_CURVE('',#166,#169,#137,.T.);
#206=EDGE_CURVE('',#170,#168,#138,.T.);
#207=EDGE_CURVE('',#171,#170,#90,.T.);
#208=EDGE_CURVE('',#171,#169,#139,.T.);
#209=EDGE_CURVE('',#165,#170,#140,.T.);
#210=EDGE_CURVE('',#167,#171,#141,.T.);
#211=EDGE_CURVE('',#163,#153,#91,.T.);
#212=EDGE_CURVE('',#150,#158,#92,.T.);
#213=EDGE_CURVE('',#154,#162,#93,.T.);
#214=EDGE_CURVE('',#161,#155,#94,.T.);
#215=EDGE_CURVE('',#159,#149,#95,.T.);
#216=EDGE_CURVE('',#160,#148,#96,.T.);
#217=ORIENTED_EDGE('',*,*,#172,.T.);
#218=ORIENTED_EDGE('',*,*,#173,.T.);
#219=ORIENTED_EDGE('',*,*,#174,.T.);
#220=ORIENTED_EDGE('',*,*,#173,.F.);
#221=ORIENTED_EDGE('',*,*,#175,.T.);
#222=ORIENTED_EDGE('',*,*,#176,.T.);
#223=ORIENTED_EDGE('',*,*,#177,.T.);
#224=ORIENTED_EDGE('',*,*,#176,.F.);
#225=ORIENTED_EDGE('',*,*,#178,.T.);
#226=ORIENTED_EDGE('',*,*,#179,.T.);
#227=ORIENTED_EDGE('',*,*,#180,.F.);
#228=ORIENTED_EDGE('',*,*,#179,.F.);
#229=ORIENTED_EDGE('',*,*,#181,.T.);
#230=ORIENTED_EDGE('',*,*,#182,.T.);
#231=ORIENTED_EDGE('',*,*,#183,.F.);
#232=ORIENTED_EDGE('',*,*,#184,.F.);
#233=ORIENTED_EDGE('',*,*,#185,.T.);
#234=ORIENTED_EDGE('',*,*,#186,.T.);
#235=ORIENTED_EDGE('',*,*,#187,.F.);
#236=ORIENTED_EDGE('',*,*,#188,.F.);
#237=ORIENTED_EDGE('',*,*,#189,.T.);
#238=ORIENTED_EDGE('',*,*,#190,.F.);
#239=ORIENTED_EDGE('',*,*,#191,.F.);
#240=ORIENTED_EDGE('',*,*,#184,.T.);
#241=ORIENTED_EDGE('',*,*,#192,.F.);
#242=ORIENTED_EDGE('',*,*,#193,.T.);
#243=ORIENTED_EDGE('',*,*,#194,.F.);
#244=ORIENTED_EDGE('',*,*,#195,.F.);
#245=ORIENTED_EDGE('',*,*,#196,.T.);
#246=ORIENTED_EDGE('',*,*,#197,.T.);
#247=ORIENTED_EDGE('',*,*,#198,.T.);
#248=ORIENTED_EDGE('',*,*,#190,.T.);
#249=ORIENTED_EDGE('',*,*,#199,.F.);
#250=ORIENTED_EDGE('',*,*,#200,.F.);
#251=ORIENTED_EDGE('',*,*,#201,.T.);
#252=ORIENTED_EDGE('',*,*,#202,.T.);
#253=ORIENTED_EDGE('',*,*,#203,.T.);
#254=ORIENTED_EDGE('',*,*,#204,.F.);
#255=ORIENTED_EDGE('',*,*,#205,.F.);
#256=ORIENTED_EDGE('',*,*,#200,.T.);
#257=ORIENTED_EDGE('',*,*,#206,.F.);
#258=ORIENTED_EDGE('',*,*,#207,.F.);
#259=ORIENTED_EDGE('',*,*,#208,.T.);
#260=ORIENTED_EDGE('',*,*,#204,.T.);
#261=ORIENTED_EDGE('',*,*,#209,.F.);
#262=ORIENTED_EDGE('',*,*,#202,.F.);
#263=ORIENTED_EDGE('',*,*,#210,.T.);
#264=ORIENTED_EDGE('',*,*,#207,.T.);
#265=ORIENTED_EDGE('',*,*,#198,.F.);
#266=ORIENTED_EDGE('',*,*,#211,.T.);
#267=ORIENTED_EDGE('',*,*,#185,.F.);
#268=ORIENTED_EDGE('',*,*,#191,.T.);
#269=ORIENTED_EDGE('',*,*,#201,.F.);
#270=ORIENTED_EDGE('',*,*,#205,.T.);
#271=ORIENTED_EDGE('',*,*,#208,.F.);
#272=ORIENTED_EDGE('',*,*,#210,.F.);
#273=ORIENTED_EDGE('',*,*,#178,.F.);
#274=ORIENTED_EDGE('',*,*,#183,.T.);
#275=ORIENTED_EDGE('',*,*,#212,.T.);
#276=ORIENTED_EDGE('',*,*,#192,.T.);
#277=ORIENTED_EDGE('',*,*,#189,.F.);
#278=ORIENTED_EDGE('',*,*,#199,.T.);
#279=ORIENTED_EDGE('',*,*,#209,.T.);
#280=ORIENTED_EDGE('',*,*,#206,.T.);
#281=ORIENTED_EDGE('',*,*,#203,.F.);
#282=ORIENTED_EDGE('',*,*,#180,.T.);
#283=ORIENTED_EDGE('',*,*,#187,.T.);
#284=ORIENTED_EDGE('',*,*,#213,.T.);
#285=ORIENTED_EDGE('',*,*,#196,.F.);
#286=ORIENTED_EDGE('',*,*,#214,.T.);
#287=ORIENTED_EDGE('',*,*,#172,.F.);
#288=ORIENTED_EDGE('',*,*,#175,.F.);
#289=ORIENTED_EDGE('',*,*,#194,.T.);
#290=ORIENTED_EDGE('',*,*,#215,.T.);
#291=ORIENTED_EDGE('',*,*,#181,.F.);
#292=ORIENTED_EDGE('',*,*,#216,.F.);
#293=ORIENTED_EDGE('',*,*,#174,.F.);
#294=ORIENTED_EDGE('',*,*,#177,.F.);
#295=ORIENTED_EDGE('',*,*,#214,.F.);
#296=ORIENTED_EDGE('',*,*,#195,.T.);
#297=ORIENTED_EDGE('',*,*,#216,.T.);
#298=ORIENTED_EDGE('',*,*,#188,.T.);
#299=ORIENTED_EDGE('',*,*,#197,.F.);
#300=ORIENTED_EDGE('',*,*,#213,.F.);
#301=ORIENTED_EDGE('',*,*,#186,.F.);
#302=ORIENTED_EDGE('',*,*,#211,.F.);
#303=ORIENTED_EDGE('',*,*,#193,.F.);
#304=ORIENTED_EDGE('',*,*,#212,.F.);
#305=ORIENTED_EDGE('',*,*,#182,.F.);
#306=ORIENTED_EDGE('',*,*,#215,.F.);
#307=CYLINDRICAL_SURFACE('',#354,3.49999999999995);
#308=CYLINDRICAL_SURFACE('',#357,3.49999999999995);
#309=CYLINDRICAL_SURFACE('',#360,3.50000000000006);
#310=CYLINDRICAL_SURFACE('',#366,50.);
#311=CYLINDRICAL_SURFACE('',#372,3.49999999999995);
#312=CYLINDRICAL_SURFACE('',#375,36.5);
#313=CYLINDRICAL_SURFACE('',#378,3.50000000000017);
#314=CYLINDRICAL_SURFACE('',#381,43.5000000000002);
#315=CYLINDRICAL_SURFACE('',#389,2.);
#316=CYLINDRICAL_SURFACE('',#390,5.);
#317=ADVANCED_FACE('',(#30),#307,.F.);
#318=ADVANCED_FACE('',(#31),#308,.F.);
#319=ADVANCED_FACE('',(#32),#309,.F.);
#320=ADVANCED_FACE('',(#33),#23,.T.);
#321=ADVANCED_FACE('',(#34),#310,.T.);
#322=ADVANCED_FACE('',(#35),#24,.T.);
#323=ADVANCED_FACE('',(#36),#311,.F.);
#324=ADVANCED_FACE('',(#37),#312,.T.);
#325=ADVANCED_FACE('',(#38),#313,.F.);
#326=ADVANCED_FACE('',(#39),#314,.F.);
#327=ADVANCED_FACE('',(#40,#15,#16),#25,.T.);
#328=ADVANCED_FACE('',(#41,#17,#18),#26,.F.);
#329=ADVANCED_FACE('',(#42,#19,#20),#27,.T.);
#330=ADVANCED_FACE('',(#43,#21,#22),#28,.F.);
#331=ADVANCED_FACE('',(#44),#29,.T.);
#332=ADVANCED_FACE('',(#45),#315,.F.);
#333=ADVANCED_FACE('',(#46),#316,.T.);
#334=CLOSED_SHELL('',(#317,#318,#319,#320,#321,#322,#323,#324,#325,#326,
#327,#328,#329,#330,#331,#332,#333));
#335=DERIVED_UNIT_ELEMENT(#337,1.);
#336=DERIVED_UNIT_ELEMENT(#590,-3.);
#337=(
MASS_UNIT()
NAMED_UNIT(*)
SI_UNIT($,.GRAM.)
);
#338=DERIVED_UNIT((#335,#336));
#339=MEASURE_REPRESENTATION_ITEM('density measure',
POSITIVE_RATIO_MEASURE(7.85),#338);
#340=PROPERTY_DEFINITION_REPRESENTATION(#345,#342);
#341=PROPERTY_DEFINITION_REPRESENTATION(#346,#343);
#342=REPRESENTATION('material name',(#344),#587);
#343=REPRESENTATION('density',(#339),#587);
#344=DESCRIPTIVE_REPRESENTATION_ITEM('Acciaio','Acciaio');
#345=PROPERTY_DEFINITION('material property','material name',#597);
#346=PROPERTY_DEFINITION('material property','density of part',#597);
#347=DATE_TIME_ROLE('creation_date');
#348=APPLIED_DATE_AND_TIME_ASSIGNMENT(#349,#347,(#597));
#349=DATE_AND_TIME(#350,#351);
#350=CALENDAR_DATE(2014,26,6);
#351=LOCAL_TIME(0,0,0.,#352);
#352=COORDINATED_UNIVERSAL_TIME_OFFSET(0,0,.BEHIND.);
#353=AXIS2_PLACEMENT_3D('placement',#492,#391,#392);
#354=AXIS2_PLACEMENT_3D('',#493,#393,#394);
#355=AXIS2_PLACEMENT_3D('',#495,#395,#396);
#356=AXIS2_PLACEMENT_3D('',#498,#398,#399);
#357=AXIS2_PLACEMENT_3D('',#499,#400,#401);
#358=AXIS2_PLACEMENT_3D('',#501,#402,#403);
#359=AXIS2_PLACEMENT_3D('',#504,#405,#406);
#360=AXIS2_PLACEMENT_3D('',#505,#407,#408);
#361=AXIS2_PLACEMENT_3D('',#507,#409,#410);
#362=AXIS2_PLACEMENT_3D('',#510,#412,#413);
#363=AXIS2_PLACEMENT_3D('',#511,#414,#415);
#364=AXIS2_PLACEMENT_3D('',#516,#417,#418);
#365=AXIS2_PLACEMENT_3D('',#524,#422,#423);
#366=AXIS2_PLACEMENT_3D('',#528,#426,#427);
#367=AXIS2_PLACEMENT_3D('',#530,#428,#429);
#368=AXIS2_PLACEMENT_3D('',#533,#431,#432);
#369=AXIS2_PLACEMENT_3D('',#534,#433,#434);
#370=AXIS2_PLACEMENT_3D('',#538,#436,#437);
#371=AXIS2_PLACEMENT_3D('',#546,#441,#442);
#372=AXIS2_PLACEMENT_3D('',#548,#444,#445);
#373=AXIS2_PLACEMENT_3D('',#551,#446,#447);
#374=AXIS2_PLACEMENT_3D('',#555,#449,#450);
#375=AXIS2_PLACEMENT_3D('',#557,#452,#453);
#376=AXIS2_PLACEMENT_3D('',#559,#454,#455);
#377=AXIS2_PLACEMENT_3D('',#562,#457,#458);
#378=AXIS2_PLACEMENT_3D('',#563,#459,#460);
#379=AXIS2_PLACEMENT_3D('',#565,#461,#462);
#380=AXIS2_PLACEMENT_3D('',#568,#464,#465);
#381=AXIS2_PLACEMENT_3D('',#569,#466,#467);
#382=AXIS2_PLACEMENT_3D('',#570,#468,#469);
#383=AXIS2_PLACEMENT_3D('',#571,#470,#471);
#384=AXIS2_PLACEMENT_3D('',#572,#472,#473);
#385=AXIS2_PLACEMENT_3D('',#574,#475,#476);
#386=AXIS2_PLACEMENT_3D('',#576,#478,#479);
#387=AXIS2_PLACEMENT_3D('',#579,#482,#483);
#388=AXIS2_PLACEMENT_3D('',#582,#486,#487);
#389=AXIS2_PLACEMENT_3D('',#583,#488,#489);
#390=AXIS2_PLACEMENT_3D('',#584,#490,#491);
#391=DIRECTION('axis',(0.,0.,1.));
#392=DIRECTION('refdir',(1.,0.,0.));
#393=DIRECTION('center_axis',(-2.77555756156289E-16,-1.,0.));
#394=DIRECTION('ref_axis',(1.,-2.77555756156289E-16,0.));
#395=DIRECTION('center_axis',(2.77555756156289E-16,1.,0.));
#396=DIRECTION('ref_axis',(-1.,2.77555756156289E-16,0.));
#397=DIRECTION('',(-2.77555756156289E-16,-1.,0.));
#398=DIRECTION('center_axis',(-2.77555756156289E-16,-1.,0.));
#399=DIRECTION('ref_axis',(1.,-2.77555756156289E-16,0.));
#400=DIRECTION('center_axis',(-2.77555756156289E-16,-1.,0.));
#401=DIRECTION('ref_axis',(1.,-2.77555756156289E-16,0.));
#402=DIRECTION('center_axis',(2.77555756156289E-16,1.,0.));
#403=DIRECTION('ref_axis',(-1.,2.77555756156289E-16,0.));
#404=DIRECTION('',(-2.77555756156289E-16,-1.,0.));
#405=DIRECTION('center_axis',(-2.77555756156289E-16,-1.,0.));
#406=DIRECTION('ref_axis',(1.,-2.77555756156289E-16,0.));
#407=DIRECTION('center_axis',(0.,0.,-1.));
#408=DIRECTION('ref_axis',(-1.,0.,0.));
#409=DIRECTION('center_axis',(0.,0.,1.));
#410=DIRECTION('ref_axis',(1.,0.,0.));
#411=DIRECTION('',(0.,0.,-1.));
#412=DIRECTION('center_axis',(0.,0.,1.));
#413=DIRECTION('ref_axis',(1.,0.,0.));
#414=DIRECTION('center_axis',(1.,0.,0.));
#415=DIRECTION('ref_axis',(0.,0.,-1.));
#416=DIRECTION('',(0.,0.,-1.));
#417=DIRECTION('center_axis',(1.,0.,0.));
#418=DIRECTION('ref_axis',(0.,0.,-1.));
#419=DIRECTION('',(0.,-1.,0.));
#420=DIRECTION('',(0.,0.,-1.));
#421=DIRECTION('',(0.,-1.,0.));
#422=DIRECTION('center_axis',(-1.,0.,0.));
#423=DIRECTION('ref_axis',(0.,0.,-1.));
#424=DIRECTION('',(0.,0.,-1.));
#425=DIRECTION('',(0.,1.,0.));
#426=DIRECTION('center_axis',(0.,0.,-1.));
#427=DIRECTION('ref_axis',(-1.,0.,0.));
#428=DIRECTION('center_axis',(0.,0.,1.));
#429=DIRECTION('ref_axis',(1.,0.,0.));
#430=DIRECTION('',(0.,0.,-1.));
#431=DIRECTION('center_axis',(0.,0.,1.));
#432=DIRECTION('ref_axis',(1.,0.,0.));
#433=DIRECTION('center_axis',(-1.,0.,0.));
#434=DIRECTION('ref_axis',(0.,0.,1.));
#435=DIRECTION('',(0.,1.,0.));
#436=DIRECTION('center_axis',(-1.,0.,0.));
#437=DIRECTION('ref_axis',(0.,0.,1.));
#438=DIRECTION('',(0.,0.,-1.));
#439=DIRECTION('',(0.,-1.,0.));
#440=DIRECTION('',(0.,0.,-1.));
#441=DIRECTION('center_axis',(1.,0.,0.));
#442=DIRECTION('ref_axis',(0.,0.,1.));
#443=DIRECTION('',(0.,1.,0.));
#444=DIRECTION('center_axis',(0.,0.,-1.));
#445=DIRECTION('ref_axis',(-1.,0.,0.));
#446=DIRECTION('center_axis',(0.,0.,1.));
#447=DIRECTION('ref_axis',(1.,0.,0.));
#448=DIRECTION('',(0.,0.,-1.));
#449=DIRECTION('center_axis',(0.,0.,1.));
#450=DIRECTION('ref_axis',(1.,0.,0.));
#451=DIRECTION('',(0.,0.,-1.));
#452=DIRECTION('center_axis',(0.,0.,-1.));
#453=DIRECTION('ref_axis',(-1.,0.,0.));
#454=DIRECTION('center_axis',(0.,0.,1.));
#455=DIRECTION('ref_axis',(1.,0.,0.));
#456=DIRECTION('',(0.,0.,-1.));
#457=DIRECTION('center_axis',(0.,0.,1.));
#458=DIRECTION('ref_axis',(1.,0.,0.));
#459=DIRECTION('center_axis',(0.,0.,-1.));
#460=DIRECTION('ref_axis',(-1.,0.,0.));
#461=DIRECTION('center_axis',(0.,0.,1.));
#462=DIRECTION('ref_axis',(1.,0.,0.));
#463=DIRECTION('',(0.,0.,-1.));
#464=DIRECTION('center_axis',(0.,0.,1.));
#465=DIRECTION('ref_axis',(1.,0.,0.));
#466=DIRECTION('center_axis',(0.,0.,-1.));
#467=DIRECTION('ref_axis',(-1.,0.,0.));
#468=DIRECTION('center_axis',(0.,0.,1.));
#469=DIRECTION('ref_axis',(1.,0.,0.));
#470=DIRECTION('center_axis',(0.,0.,1.));
#471=DIRECTION('ref_axis',(1.,0.,0.));
#472=DIRECTION('center_axis',(0.,0.,1.));
#473=DIRECTION('ref_axis',(1.,0.,0.));
#474=DIRECTION('',(1.,-2.77555756156289E-16,0.));
#475=DIRECTION('center_axis',(0.,0.,1.));
#476=DIRECTION('ref_axis',(1.,0.,0.));
#477=DIRECTION('',(-1.,2.77555756156289E-16,0.));
#478=DIRECTION('center_axis',(2.77555756156289E-16,1.,0.));
#479=DIRECTION('ref_axis',(-1.,2.77555756156289E-16,0.));
#480=DIRECTION('',(-1.,2.77555756156289E-16,0.));
#481=DIRECTION('',(1.,-2.77555756156289E-16,0.));
#482=DIRECTION('center_axis',(2.77555756156289E-16,1.,0.));
#483=DIRECTION('ref_axis',(-1.,2.77555756156289E-16,0.));
#484=DIRECTION('',(1.,-2.77555756156289E-16,0.));
#485=DIRECTION('',(1.,-2.77555756156289E-16,0.));
#486=DIRECTION('center_axis',(0.,0.,1.));
#487=DIRECTION('ref_axis',(1.,0.,0.));
#488=DIRECTION('center_axis',(-1.,2.77555756156289E-16,0.));
#489=DIRECTION('ref_axis',(-2.77555756156289E-16,-1.,0.));
#490=DIRECTION('center_axis',(1.,-2.77555756156289E-16,0.));
#491=DIRECTION('ref_axis',(2.77555756156289E-16,1.,0.));
#492=CARTESIAN_POINT('',(0.,0.,0.));
#493=CARTESIAN_POINT('Origin',(678.863371013805,65.1386329758508,16.));
#494=CARTESIAN_POINT('',(675.363371013805,58.1386329758525,16.));
#495=CARTESIAN_POINT('Origin',(678.863371013805,58.1386329758525,16.));
#496=CARTESIAN_POINT('',(675.363371013805,55.1386329758508,16.));
#497=CARTESIAN_POINT('',(675.363371013805,65.1386329758508,16.));
#498=CARTESIAN_POINT('Origin',(678.863371013805,55.1386329758508,16.));
#499=CARTESIAN_POINT('Origin',(596.863371013805,65.1386329758508,16.));
#500=CARTESIAN_POINT('',(593.363371013805,58.1386329758525,16.));
#501=CARTESIAN_POINT('Origin',(596.863371013805,58.1386329758525,16.));
#502=CARTESIAN_POINT('',(593.363371013805,55.1386329758508,16.));
#503=CARTESIAN_POINT('',(593.363371013805,65.1386329758508,16.));
#504=CARTESIAN_POINT('Origin',(596.863371013805,55.1386329758508,16.));
#505=CARTESIAN_POINT('Origin',(637.863371013805,70.1386329758525,3.));
#506=CARTESIAN_POINT('',(641.363371013805,70.1386329758525,3.));
#507=CARTESIAN_POINT('Origin',(637.863371013805,70.1386329758525,3.));
#508=CARTESIAN_POINT('',(641.363371013805,70.1386329758525,0.));
#509=CARTESIAN_POINT('',(641.363371013805,70.1386329758525,3.));
#510=CARTESIAN_POINT('Origin',(637.863371013805,70.1386329758525,0.));
#511=CARTESIAN_POINT('Origin',(687.863371013805,-5.27199124426796,3.));
#512=CARTESIAN_POINT('',(687.863371013805,55.1386329758508,28.));
#513=CARTESIAN_POINT('',(687.863371013805,55.1386329758508,5.));
#514=CARTESIAN_POINT('',(687.863371013805,55.1386329758508,28.));
#515=CARTESIAN_POINT('',(687.863371013805,60.1386329758508,0.));
#516=CARTESIAN_POINT('Origin',(687.863371013805,60.1386329758508,5.));
#517=CARTESIAN_POINT('',(687.863371013805,70.1386329758525,0.));
#518=CARTESIAN_POINT('',(687.863371013805,-5.27199124426796,0.));
#519=CARTESIAN_POINT('',(687.863371013805,70.1386329758525,3.));
#520=CARTESIAN_POINT('',(687.863371013805,70.1386329758525,3.));
#521=CARTESIAN_POINT('',(687.863371013805,60.1386329758525,3.));
#522=CARTESIAN_POINT('',(687.863371013805,-5.27199124426796,3.));
#523=CARTESIAN_POINT('',(687.863371013805,58.1386329758525,5.));
#524=CARTESIAN_POINT('Origin',(687.863371013805,60.1386329758525,5.));
#525=CARTESIAN_POINT('',(687.863371013805,58.1386329758525,28.));
#526=CARTESIAN_POINT('',(687.863371013805,58.1386329758525,28.));
#527=CARTESIAN_POINT('',(687.863371013805,-5.27199124426796,28.));
#528=CARTESIAN_POINT('Origin',(637.863371013805,70.1386329758525,3.));
#529=CARTESIAN_POINT('',(587.863371013805,70.1386329758525,0.));
#530=CARTESIAN_POINT('Origin',(637.863371013805,70.1386329758525,0.));
#531=CARTESIAN_POINT('',(587.863371013805,70.1386329758525,3.));
#532=CARTESIAN_POINT('',(587.863371013805,70.1386329758525,3.));
#533=CARTESIAN_POINT('Origin',(637.863371013805,70.1386329758525,3.));
#534=CARTESIAN_POINT('Origin',(587.863371013805,-5.27199124426796,3.));
#535=CARTESIAN_POINT('',(587.863371013805,60.1386329758508,0.));
#536=CARTESIAN_POINT('',(587.863371013805,-5.27199124426796,0.));
#537=CARTESIAN_POINT('',(587.863371013805,55.1386329758508,5.));
#538=CARTESIAN_POINT('Origin',(587.863371013805,60.1386329758508,5.));
#539=CARTESIAN_POINT('',(587.863371013805,55.1386329758508,28.));
#540=CARTESIAN_POINT('',(587.863371013805,55.1386329758508,28.));
#541=CARTESIAN_POINT('',(587.863371013805,58.1386329758525,28.));
#542=CARTESIAN_POINT('',(587.863371013805,-5.27199124426796,28.));
#543=CARTESIAN_POINT('',(587.863371013805,58.1386329758525,5.));
#544=CARTESIAN_POINT('',(587.863371013805,58.1386329758525,28.));
#545=CARTESIAN_POINT('',(587.863371013805,60.1386329758525,3.));
#546=CARTESIAN_POINT('Origin',(587.863371013805,60.1386329758525,5.));
#547=CARTESIAN_POINT('',(587.863371013805,-5.27199124426796,3.));
#548=CARTESIAN_POINT('Origin',(677.863371013805,70.1386329758525,3.));
#549=CARTESIAN_POINT('',(674.363371013805,70.1386329758525,0.));
#550=CARTESIAN_POINT('',(681.363371013805,70.1386329758525,0.));
#551=CARTESIAN_POINT('Origin',(677.863371013805,70.1386329758525,0.));
#552=CARTESIAN_POINT('',(674.363371013805,70.1386329758525,3.));
#553=CARTESIAN_POINT('',(674.363371013805,70.1386329758525,3.));
#554=CARTESIAN_POINT('',(681.363371013805,70.1386329758525,3.));
#555=CARTESIAN_POINT('Origin',(677.863371013805,70.1386329758525,3.));
#556=CARTESIAN_POINT('',(681.363371013805,70.1386329758525,3.));
#557=CARTESIAN_POINT('Origin',(637.863371013805,70.1386329758525,3.));
#558=CARTESIAN_POINT('',(601.363371013805,70.1386329758525,0.));
#559=CARTESIAN_POINT('Origin',(637.863371013805,70.1386329758525,0.));
#560=CARTESIAN_POINT('',(601.363371013805,70.1386329758525,3.));
#561=CARTESIAN_POINT('',(601.363371013805,70.1386329758525,3.));
#562=CARTESIAN_POINT('Origin',(637.863371013805,70.1386329758525,3.));
#563=CARTESIAN_POINT('Origin',(597.863371013805,70.1386329758525,3.));
#564=CARTESIAN_POINT('',(594.363371013805,70.1386329758525,0.));
#565=CARTESIAN_POINT('Origin',(597.863371013805,70.1386329758525,0.));
#566=CARTESIAN_POINT('',(594.363371013805,70.1386329758525,3.));
#567=CARTESIAN_POINT('',(594.363371013805,70.1386329758525,3.));
#568=CARTESIAN_POINT('Origin',(597.863371013805,70.1386329758525,3.));
#569=CARTESIAN_POINT('Origin',(637.863371013805,70.1386329758525,3.));
#570=CARTESIAN_POINT('Origin',(637.863371013805,70.1386329758525,0.));
#571=CARTESIAN_POINT('Origin',(637.863371013805,70.1386329758525,3.));
#572=CARTESIAN_POINT('Origin',(637.863371013805,-5.27199124426796,3.));
#573=CARTESIAN_POINT('',(687.863371013805,60.1386329758525,3.));
#574=CARTESIAN_POINT('Origin',(637.863371013805,-5.27199124426796,0.));
#575=CARTESIAN_POINT('',(637.863371013805,60.1386329758508,0.));
#576=CARTESIAN_POINT('Origin',(637.863371013805,58.1386329758525,28.));
#577=CARTESIAN_POINT('',(587.863371013805,58.1386329758525,5.));
#578=CARTESIAN_POINT('',(637.863371013805,58.1386329758525,28.));
#579=CARTESIAN_POINT('Origin',(637.863371013805,55.1386329758508,28.));
#580=CARTESIAN_POINT('',(637.863371013805,55.1386329758508,5.));
#581=CARTESIAN_POINT('',(637.863371013805,55.1386329758508,28.));
#582=CARTESIAN_POINT('Origin',(637.863371013805,-5.27199124426796,28.));
#583=CARTESIAN_POINT('Origin',(637.863371013805,60.1386329758525,5.));
#584=CARTESIAN_POINT('Origin',(637.863371013805,60.1386329758508,5.));
#585=UNCERTAINTY_MEASURE_WITH_UNIT(LENGTH_MEASURE(0.01),#589,
'DISTANCE_ACCURACY_VALUE',
'Maximum model space distance between geometric entities at asserted c
onnectivities');
#586=UNCERTAINTY_MEASURE_WITH_UNIT(LENGTH_MEASURE(0.01),#589,
'DISTANCE_ACCURACY_VALUE',
'Maximum model space distance between geometric entities at asserted c
onnectivities');
#587=(
GEOMETRIC_REPRESENTATION_CONTEXT(3)
GLOBAL_UNCERTAINTY_ASSIGNED_CONTEXT((#585))
GLOBAL_UNIT_ASSIGNED_CONTEXT((#589,#591,#592))
REPRESENTATION_CONTEXT('','3D')
);
#588=(
GEOMETRIC_REPRESENTATION_CONTEXT(3)
GLOBAL_UNCERTAINTY_ASSIGNED_CONTEXT((#586))
GLOBAL_UNIT_ASSIGNED_CONTEXT((#589,#591,#592))
REPRESENTATION_CONTEXT('','3D')
);
#589=(
LENGTH_UNIT()
NAMED_UNIT(*)
SI_UNIT(.MILLI.,.METRE.)
);
#590=(
LENGTH_UNIT()
NAMED_UNIT(*)
SI_UNIT(.CENTI.,.METRE.)
);
#591=(
NAMED_UNIT(*)
PLANE_ANGLE_UNIT()
SI_UNIT($,.RADIAN.)
);
#592=(
NAMED_UNIT(*)
SI_UNIT($,.STERADIAN.)
SOLID_ANGLE_UNIT()
);
#593=SHAPE_DEFINITION_REPRESENTATION(#594,#595);
#594=PRODUCT_DEFINITION_SHAPE('',$,#597);
#595=SHAPE_REPRESENTATION('',(#353),#587);
#596=PRODUCT_DEFINITION_CONTEXT('part definition',#601,'design');
#597=PRODUCT_DEFINITION('SAP30','SAP30',#598,#596);
#598=PRODUCT_DEFINITION_FORMATION('A00',$,#603);
#599=PRODUCT_RELATED_PRODUCT_CATEGORY('SAP30','SAP30',(#603));
#600=APPLICATION_PROTOCOL_DEFINITION('international standard',
'automotive_design',2009,#601);
#601=APPLICATION_CONTEXT(
'Core Data for Automotive Mechanical Design Process');
#602=PRODUCT_CONTEXT('part definition',#601,'mechanical');
#603=PRODUCT('SAP30','SAP30','Piastra angolare girevole serie 30',(#602));
#604=PRESENTATION_STYLE_ASSIGNMENT((#605));
#605=SURFACE_STYLE_USAGE(.BOTH.,#608);
#606=SURFACE_STYLE_RENDERING_WITH_PROPERTIES($,#612,(#607));
#607=SURFACE_STYLE_TRANSPARENT(0.);
#608=SURFACE_SIDE_STYLE('',(#609,#606));
#609=SURFACE_STYLE_FILL_AREA(#610);
#610=FILL_AREA_STYLE('',(#611));
#611=FILL_AREA_STYLE_COLOUR('',#612);
#612=COLOUR_RGB('',0.0196078431372549,0.0196078431372549,0.0196078431372549);
ENDSEC;
END-ISO-10303-21;
