ISO-10303-21;
HEADER;
/* Generated by software containing ST-Developer
 * from STEP Tools, Inc. (www.steptools.com) 
 */

FILE_DESCRIPTION(
/* description */ ('STEP AP214'),
/* implementation_level */ '2;1');

FILE_NAME(
/* name */ 'C:\\Users\\Stefan.Nesic\\Desktop\\01010STEP\\RTB28.180.stp',

/* time_stamp */ '2022-06-21T17:37:56+02:00',
/* author */ ('USER'),
/* organization */ ('Microsoft'),
/* preprocessor_version */ 'ST-DEVELOPER v18.1',
/* originating_system */ 'Autodesk Inventor 2021',
/* authorisation */ '');

FILE_SCHEMA (('AUTOMOTIVE_DESIGN { 1 0 10303 214 3 1 1 }'));
ENDSEC;

DATA;
#10=MECHANICAL_DESIGN_GEOMETRIC_PRESENTATION_REPRESENTATION('',(#13),#601);
#11=SHAPE_REPRESENTATION_RELATIONSHIP('SRR','None',#608,#12);
#12=ADVANCED_BREP_SHAPE_REPRESENTATION('',(#14),#600);
#13=STYLED_ITEM('',(#617),#14);
#14=MANIFOLD_SOLID_BREP('Solido1',#343);
#15=PLANE('',#375);
#16=PLANE('',#376);
#17=PLANE('',#377);
#18=PLANE('',#381);
#19=PLANE('',#385);
#20=PLANE('',#386);
#21=PLANE('',#387);
#22=PLANE('',#391);
#23=PLANE('',#395);
#24=PLANE('',#396);
#25=FACE_OUTER_BOUND('',#43,.T.);
#26=FACE_OUTER_BOUND('',#44,.T.);
#27=FACE_OUTER_BOUND('',#45,.T.);
#28=FACE_OUTER_BOUND('',#46,.T.);
#29=FACE_OUTER_BOUND('',#47,.T.);
#30=FACE_OUTER_BOUND('',#48,.T.);
#31=FACE_OUTER_BOUND('',#49,.T.);
#32=FACE_OUTER_BOUND('',#50,.T.);
#33=FACE_OUTER_BOUND('',#51,.T.);
#34=FACE_OUTER_BOUND('',#52,.T.);
#35=FACE_OUTER_BOUND('',#53,.T.);
#36=FACE_OUTER_BOUND('',#54,.T.);
#37=FACE_OUTER_BOUND('',#55,.T.);
#38=FACE_OUTER_BOUND('',#56,.T.);
#39=FACE_OUTER_BOUND('',#57,.T.);
#40=FACE_OUTER_BOUND('',#58,.T.);
#41=FACE_OUTER_BOUND('',#59,.T.);
#42=FACE_OUTER_BOUND('',#60,.T.);
#43=EDGE_LOOP('',(#221,#222,#223,#224));
#44=EDGE_LOOP('',(#225,#226,#227,#228));
#45=EDGE_LOOP('',(#229,#230,#231,#232));
#46=EDGE_LOOP('',(#233,#234,#235,#236));
#47=EDGE_LOOP('',(#237,#238,#239,#240));
#48=EDGE_LOOP('',(#241,#242,#243,#244));
#49=EDGE_LOOP('',(#245,#246,#247,#248));
#50=EDGE_LOOP('',(#249,#250,#251,#252));
#51=EDGE_LOOP('',(#253,#254,#255,#256));
#52=EDGE_LOOP('',(#257,#258,#259,#260));
#53=EDGE_LOOP('',(#261,#262,#263,#264));
#54=EDGE_LOOP('',(#265,#266,#267,#268));
#55=EDGE_LOOP('',(#269,#270,#271,#272));
#56=EDGE_LOOP('',(#273,#274,#275,#276));
#57=EDGE_LOOP('',(#277,#278,#279,#280));
#58=EDGE_LOOP('',(#281,#282,#283,#284));
#59=EDGE_LOOP('',(#285,#286,#287,#288,#289,#290,#291,#292,#293,#294,#295,
#296,#297,#298,#299,#300));
#60=EDGE_LOOP('',(#301,#302,#303,#304,#305,#306,#307,#308,#309,#310,#311,
#312,#313,#314,#315,#316));
#61=LINE('',#505,#93);
#62=LINE('',#508,#94);
#63=LINE('',#514,#95);
#64=LINE('',#517,#96);
#65=LINE('',#523,#97);
#66=LINE('',#526,#98);
#67=LINE('',#532,#99);
#68=LINE('',#535,#100);
#69=LINE('',#538,#101);
#70=LINE('',#540,#102);
#71=LINE('',#541,#103);
#72=LINE('',#544,#104);
#73=LINE('',#546,#105);
#74=LINE('',#547,#106);
#75=LINE('',#549,#107);
#76=LINE('',#550,#108);
#77=LINE('',#555,#109);
#78=LINE('',#558,#110);
#79=LINE('',#559,#111);
#80=LINE('',#564,#112);
#81=LINE('',#568,#113);
#82=LINE('',#570,#114);
#83=LINE('',#571,#115);
#84=LINE('',#574,#116);
#85=LINE('',#576,#117);
#86=LINE('',#577,#118);
#87=LINE('',#580,#119);
#88=LINE('',#582,#120);
#89=LINE('',#583,#121);
#90=LINE('',#589,#122);
#91=LINE('',#591,#123);
#92=LINE('',#592,#124);
#93=VECTOR('',#403,1000.);
#94=VECTOR('',#406,1000.);
#95=VECTOR('',#411,1000.);
#96=VECTOR('',#414,1000.);
#97=VECTOR('',#419,1000.);
#98=VECTOR('',#422,1000.);
#99=VECTOR('',#427,1000.);
#100=VECTOR('',#430,1000.);
#101=VECTOR('',#433,1000.);
#102=VECTOR('',#434,1000.);
#103=VECTOR('',#435,1000.);
#104=VECTOR('',#438,1000.);
#105=VECTOR('',#439,1000.);
#106=VECTOR('',#440,1000.);
#107=VECTOR('',#443,1000.);
#108=VECTOR('',#444,1000.);
#109=VECTOR('',#449,1000.);
#110=VECTOR('',#454,1000.);
#111=VECTOR('',#455,1000.);
#112=VECTOR('',#460,1000.);
#113=VECTOR('',#465,1000.);
#114=VECTOR('',#466,1000.);
#115=VECTOR('',#467,1000.);
#116=VECTOR('',#470,1000.);
#117=VECTOR('',#471,1000.);
#118=VECTOR('',#472,1000.);
#119=VECTOR('',#475,1000.);
#120=VECTOR('',#476,1000.);
#121=VECTOR('',#477,1000.);
#122=VECTOR('',#486,1000.);
#123=VECTOR('',#487,1000.);
#124=VECTOR('',#488,1000.);
#125=CIRCLE('',#364,14.0000000000002);
#126=CIRCLE('',#365,14.0000000000002);
#127=CIRCLE('',#367,14.8000000000019);
#128=CIRCLE('',#368,14.8000000000019);
#129=CIRCLE('',#370,0.99999999977296);
#130=CIRCLE('',#371,0.99999999977296);
#131=CIRCLE('',#373,1.79999999977198);
#132=CIRCLE('',#374,1.79999999977198);
#133=CIRCLE('',#379,14.8000000000001);
#134=CIRCLE('',#380,14.8000000000001);
#135=CIRCLE('',#383,0.99999999977296);
#136=CIRCLE('',#384,0.99999999977296);
#137=CIRCLE('',#389,1.79999999977287);
#138=CIRCLE('',#390,1.79999999977287);
#139=CIRCLE('',#393,14.0000000000002);
#140=CIRCLE('',#394,14.0000000000002);
#141=VERTEX_POINT('',#501);
#142=VERTEX_POINT('',#502);
#143=VERTEX_POINT('',#504);
#144=VERTEX_POINT('',#506);
#145=VERTEX_POINT('',#510);
#146=VERTEX_POINT('',#511);
#147=VERTEX_POINT('',#513);
#148=VERTEX_POINT('',#515);
#149=VERTEX_POINT('',#519);
#150=VERTEX_POINT('',#520);
#151=VERTEX_POINT('',#522);
#152=VERTEX_POINT('',#524);
#153=VERTEX_POINT('',#528);
#154=VERTEX_POINT('',#529);
#155=VERTEX_POINT('',#531);
#156=VERTEX_POINT('',#533);
#157=VERTEX_POINT('',#537);
#158=VERTEX_POINT('',#539);
#159=VERTEX_POINT('',#543);
#160=VERTEX_POINT('',#545);
#161=VERTEX_POINT('',#552);
#162=VERTEX_POINT('',#554);
#163=VERTEX_POINT('',#561);
#164=VERTEX_POINT('',#563);
#165=VERTEX_POINT('',#567);
#166=VERTEX_POINT('',#569);
#167=VERTEX_POINT('',#573);
#168=VERTEX_POINT('',#575);
#169=VERTEX_POINT('',#579);
#170=VERTEX_POINT('',#581);
#171=VERTEX_POINT('',#588);
#172=VERTEX_POINT('',#590);
#173=EDGE_CURVE('',#141,#142,#125,.T.);
#174=EDGE_CURVE('',#141,#143,#61,.T.);
#175=EDGE_CURVE('',#143,#144,#126,.T.);
#176=EDGE_CURVE('',#142,#144,#62,.T.);
#177=EDGE_CURVE('',#145,#146,#127,.T.);
#178=EDGE_CURVE('',#145,#147,#63,.T.);
#179=EDGE_CURVE('',#147,#148,#128,.T.);
#180=EDGE_CURVE('',#146,#148,#64,.T.);
#181=EDGE_CURVE('',#149,#150,#129,.T.);
#182=EDGE_CURVE('',#149,#151,#65,.T.);
#183=EDGE_CURVE('',#151,#152,#130,.T.);
#184=EDGE_CURVE('',#150,#152,#66,.T.);
#185=EDGE_CURVE('',#153,#154,#131,.T.);
#186=EDGE_CURVE('',#153,#155,#67,.T.);
#187=EDGE_CURVE('',#155,#156,#132,.T.);
#188=EDGE_CURVE('',#154,#156,#68,.T.);
#189=EDGE_CURVE('',#156,#157,#69,.T.);
#190=EDGE_CURVE('',#158,#157,#70,.T.);
#191=EDGE_CURVE('',#154,#158,#71,.T.);
#192=EDGE_CURVE('',#157,#159,#72,.T.);
#193=EDGE_CURVE('',#160,#159,#73,.T.);
#194=EDGE_CURVE('',#158,#160,#74,.T.);
#195=EDGE_CURVE('',#159,#151,#75,.T.);
#196=EDGE_CURVE('',#160,#149,#76,.T.);
#197=EDGE_CURVE('',#152,#161,#133,.T.);
#198=EDGE_CURVE('',#162,#161,#77,.T.);
#199=EDGE_CURVE('',#150,#162,#134,.T.);
#200=EDGE_CURVE('',#161,#147,#78,.T.);
#201=EDGE_CURVE('',#162,#145,#79,.T.);
#202=EDGE_CURVE('',#148,#163,#135,.T.);
#203=EDGE_CURVE('',#164,#163,#80,.T.);
#204=EDGE_CURVE('',#146,#164,#136,.T.);
#205=EDGE_CURVE('',#163,#165,#81,.T.);
#206=EDGE_CURVE('',#166,#165,#82,.T.);
#207=EDGE_CURVE('',#164,#166,#83,.T.);
#208=EDGE_CURVE('',#165,#167,#84,.T.);
#209=EDGE_CURVE('',#168,#167,#85,.T.);
#210=EDGE_CURVE('',#166,#168,#86,.T.);
#211=EDGE_CURVE('',#167,#169,#87,.T.);
#212=EDGE_CURVE('',#170,#169,#88,.T.);
#213=EDGE_CURVE('',#168,#170,#89,.T.);
#214=EDGE_CURVE('',#169,#143,#137,.T.);
#215=EDGE_CURVE('',#170,#141,#138,.T.);
#216=EDGE_CURVE('',#144,#171,#90,.T.);
#217=EDGE_CURVE('',#172,#171,#91,.T.);
#218=EDGE_CURVE('',#142,#172,#92,.T.);
#219=EDGE_CURVE('',#171,#155,#139,.T.);
#220=EDGE_CURVE('',#172,#153,#140,.T.);
#221=ORIENTED_EDGE('',*,*,#173,.F.);
#222=ORIENTED_EDGE('',*,*,#174,.T.);
#223=ORIENTED_EDGE('',*,*,#175,.T.);
#224=ORIENTED_EDGE('',*,*,#176,.F.);
#225=ORIENTED_EDGE('',*,*,#177,.F.);
#226=ORIENTED_EDGE('',*,*,#178,.T.);
#227=ORIENTED_EDGE('',*,*,#179,.T.);
#228=ORIENTED_EDGE('',*,*,#180,.F.);
#229=ORIENTED_EDGE('',*,*,#181,.F.);
#230=ORIENTED_EDGE('',*,*,#182,.T.);
#231=ORIENTED_EDGE('',*,*,#183,.T.);
#232=ORIENTED_EDGE('',*,*,#184,.F.);
#233=ORIENTED_EDGE('',*,*,#185,.F.);
#234=ORIENTED_EDGE('',*,*,#186,.T.);
#235=ORIENTED_EDGE('',*,*,#187,.T.);
#236=ORIENTED_EDGE('',*,*,#188,.F.);
#237=ORIENTED_EDGE('',*,*,#189,.T.);
#238=ORIENTED_EDGE('',*,*,#190,.F.);
#239=ORIENTED_EDGE('',*,*,#191,.F.);
#240=ORIENTED_EDGE('',*,*,#188,.T.);
#241=ORIENTED_EDGE('',*,*,#192,.T.);
#242=ORIENTED_EDGE('',*,*,#193,.F.);
#243=ORIENTED_EDGE('',*,*,#194,.F.);
#244=ORIENTED_EDGE('',*,*,#190,.T.);
#245=ORIENTED_EDGE('',*,*,#195,.T.);
#246=ORIENTED_EDGE('',*,*,#182,.F.);
#247=ORIENTED_EDGE('',*,*,#196,.F.);
#248=ORIENTED_EDGE('',*,*,#193,.T.);
#249=ORIENTED_EDGE('',*,*,#197,.T.);
#250=ORIENTED_EDGE('',*,*,#198,.F.);
#251=ORIENTED_EDGE('',*,*,#199,.F.);
#252=ORIENTED_EDGE('',*,*,#184,.T.);
#253=ORIENTED_EDGE('',*,*,#200,.T.);
#254=ORIENTED_EDGE('',*,*,#178,.F.);
#255=ORIENTED_EDGE('',*,*,#201,.F.);
#256=ORIENTED_EDGE('',*,*,#198,.T.);
#257=ORIENTED_EDGE('',*,*,#202,.T.);
#258=ORIENTED_EDGE('',*,*,#203,.F.);
#259=ORIENTED_EDGE('',*,*,#204,.F.);
#260=ORIENTED_EDGE('',*,*,#180,.T.);
#261=ORIENTED_EDGE('',*,*,#205,.T.);
#262=ORIENTED_EDGE('',*,*,#206,.F.);
#263=ORIENTED_EDGE('',*,*,#207,.F.);
#264=ORIENTED_EDGE('',*,*,#203,.T.);
#265=ORIENTED_EDGE('',*,*,#208,.T.);
#266=ORIENTED_EDGE('',*,*,#209,.F.);
#267=ORIENTED_EDGE('',*,*,#210,.F.);
#268=ORIENTED_EDGE('',*,*,#206,.T.);
#269=ORIENTED_EDGE('',*,*,#211,.T.);
#270=ORIENTED_EDGE('',*,*,#212,.F.);
#271=ORIENTED_EDGE('',*,*,#213,.F.);
#272=ORIENTED_EDGE('',*,*,#209,.T.);
#273=ORIENTED_EDGE('',*,*,#214,.T.);
#274=ORIENTED_EDGE('',*,*,#174,.F.);
#275=ORIENTED_EDGE('',*,*,#215,.F.);
#276=ORIENTED_EDGE('',*,*,#212,.T.);
#277=ORIENTED_EDGE('',*,*,#216,.T.);
#278=ORIENTED_EDGE('',*,*,#217,.F.);
#279=ORIENTED_EDGE('',*,*,#218,.F.);
#280=ORIENTED_EDGE('',*,*,#176,.T.);
#281=ORIENTED_EDGE('',*,*,#219,.T.);
#282=ORIENTED_EDGE('',*,*,#186,.F.);
#283=ORIENTED_EDGE('',*,*,#220,.F.);
#284=ORIENTED_EDGE('',*,*,#217,.T.);
#285=ORIENTED_EDGE('',*,*,#185,.T.);
#286=ORIENTED_EDGE('',*,*,#191,.T.);
#287=ORIENTED_EDGE('',*,*,#194,.T.);
#288=ORIENTED_EDGE('',*,*,#196,.T.);
#289=ORIENTED_EDGE('',*,*,#181,.T.);
#290=ORIENTED_EDGE('',*,*,#199,.T.);
#291=ORIENTED_EDGE('',*,*,#201,.T.);
#292=ORIENTED_EDGE('',*,*,#177,.T.);
#293=ORIENTED_EDGE('',*,*,#204,.T.);
#294=ORIENTED_EDGE('',*,*,#207,.T.);
#295=ORIENTED_EDGE('',*,*,#210,.T.);
#296=ORIENTED_EDGE('',*,*,#213,.T.);
#297=ORIENTED_EDGE('',*,*,#215,.T.);
#298=ORIENTED_EDGE('',*,*,#173,.T.);
#299=ORIENTED_EDGE('',*,*,#218,.T.);
#300=ORIENTED_EDGE('',*,*,#220,.T.);
#301=ORIENTED_EDGE('',*,*,#187,.F.);
#302=ORIENTED_EDGE('',*,*,#219,.F.);
#303=ORIENTED_EDGE('',*,*,#216,.F.);
#304=ORIENTED_EDGE('',*,*,#175,.F.);
#305=ORIENTED_EDGE('',*,*,#214,.F.);
#306=ORIENTED_EDGE('',*,*,#211,.F.);
#307=ORIENTED_EDGE('',*,*,#208,.F.);
#308=ORIENTED_EDGE('',*,*,#205,.F.);
#309=ORIENTED_EDGE('',*,*,#202,.F.);
#310=ORIENTED_EDGE('',*,*,#179,.F.);
#311=ORIENTED_EDGE('',*,*,#200,.F.);
#312=ORIENTED_EDGE('',*,*,#197,.F.);
#313=ORIENTED_EDGE('',*,*,#183,.F.);
#314=ORIENTED_EDGE('',*,*,#195,.F.);
#315=ORIENTED_EDGE('',*,*,#192,.F.);
#316=ORIENTED_EDGE('',*,*,#189,.F.);
#317=CYLINDRICAL_SURFACE('',#363,14.0000000000002);
#318=CYLINDRICAL_SURFACE('',#366,14.8000000000019);
#319=CYLINDRICAL_SURFACE('',#369,0.99999999977296);
#320=CYLINDRICAL_SURFACE('',#372,1.79999999977198);
#321=CYLINDRICAL_SURFACE('',#378,14.8000000000001);
#322=CYLINDRICAL_SURFACE('',#382,0.99999999977296);
#323=CYLINDRICAL_SURFACE('',#388,1.79999999977287);
#324=CYLINDRICAL_SURFACE('',#392,14.0000000000002);
#325=ADVANCED_FACE('',(#25),#317,.F.);
#326=ADVANCED_FACE('',(#26),#318,.T.);
#327=ADVANCED_FACE('',(#27),#319,.F.);
#328=ADVANCED_FACE('',(#28),#320,.T.);
#329=ADVANCED_FACE('',(#29),#15,.F.);
#330=ADVANCED_FACE('',(#30),#16,.F.);
#331=ADVANCED_FACE('',(#31),#17,.F.);
#332=ADVANCED_FACE('',(#32),#321,.T.);
#333=ADVANCED_FACE('',(#33),#18,.F.);
#334=ADVANCED_FACE('',(#34),#322,.F.);
#335=ADVANCED_FACE('',(#35),#19,.F.);
#336=ADVANCED_FACE('',(#36),#20,.F.);
#337=ADVANCED_FACE('',(#37),#21,.F.);
#338=ADVANCED_FACE('',(#38),#323,.T.);
#339=ADVANCED_FACE('',(#39),#22,.F.);
#340=ADVANCED_FACE('',(#40),#324,.F.);
#341=ADVANCED_FACE('',(#41),#23,.T.);
#342=ADVANCED_FACE('',(#42),#24,.F.);
#343=CLOSED_SHELL('',(#325,#326,#327,#328,#329,#330,#331,#332,#333,#334,
#335,#336,#337,#338,#339,#340,#341,#342));
#344=DERIVED_UNIT_ELEMENT(#346,1.);
#345=DERIVED_UNIT_ELEMENT(#603,-3.);
#346=(
MASS_UNIT()
NAMED_UNIT(*)
SI_UNIT($,.GRAM.)
);
#347=DERIVED_UNIT((#344,#345));
#348=MEASURE_REPRESENTATION_ITEM('density measure',
POSITIVE_RATIO_MEASURE(1.),#347);
#349=PROPERTY_DEFINITION_REPRESENTATION(#354,#351);
#350=PROPERTY_DEFINITION_REPRESENTATION(#355,#352);
#351=REPRESENTATION('material name',(#353),#600);
#352=REPRESENTATION('density',(#348),#600);
#353=DESCRIPTIVE_REPRESENTATION_ITEM('Generico','Generico');
#354=PROPERTY_DEFINITION('material property','material name',#610);
#355=PROPERTY_DEFINITION('material property','density of part',#610);
#356=DATE_TIME_ROLE('creation_date');
#357=APPLIED_DATE_AND_TIME_ASSIGNMENT(#358,#356,(#610));
#358=DATE_AND_TIME(#359,#360);
#359=CALENDAR_DATE(2015,2,11);
#360=LOCAL_TIME(0,29,57.,#361);
#361=COORDINATED_UNIVERSAL_TIME_OFFSET(0,0,.BEHIND.);
#362=AXIS2_PLACEMENT_3D('placement',#499,#397,#398);
#363=AXIS2_PLACEMENT_3D('',#500,#399,#400);
#364=AXIS2_PLACEMENT_3D('',#503,#401,#402);
#365=AXIS2_PLACEMENT_3D('',#507,#404,#405);
#366=AXIS2_PLACEMENT_3D('',#509,#407,#408);
#367=AXIS2_PLACEMENT_3D('',#512,#409,#410);
#368=AXIS2_PLACEMENT_3D('',#516,#412,#413);
#369=AXIS2_PLACEMENT_3D('',#518,#415,#416);
#370=AXIS2_PLACEMENT_3D('',#521,#417,#418);
#371=AXIS2_PLACEMENT_3D('',#525,#420,#421);
#372=AXIS2_PLACEMENT_3D('',#527,#423,#424);
#373=AXIS2_PLACEMENT_3D('',#530,#425,#426);
#374=AXIS2_PLACEMENT_3D('',#534,#428,#429);
#375=AXIS2_PLACEMENT_3D('',#536,#431,#432);
#376=AXIS2_PLACEMENT_3D('',#542,#436,#437);
#377=AXIS2_PLACEMENT_3D('',#548,#441,#442);
#378=AXIS2_PLACEMENT_3D('',#551,#445,#446);
#379=AXIS2_PLACEMENT_3D('',#553,#447,#448);
#380=AXIS2_PLACEMENT_3D('',#556,#450,#451);
#381=AXIS2_PLACEMENT_3D('',#557,#452,#453);
#382=AXIS2_PLACEMENT_3D('',#560,#456,#457);
#383=AXIS2_PLACEMENT_3D('',#562,#458,#459);
#384=AXIS2_PLACEMENT_3D('',#565,#461,#462);
#385=AXIS2_PLACEMENT_3D('',#566,#463,#464);
#386=AXIS2_PLACEMENT_3D('',#572,#468,#469);
#387=AXIS2_PLACEMENT_3D('',#578,#473,#474);
#388=AXIS2_PLACEMENT_3D('',#584,#478,#479);
#389=AXIS2_PLACEMENT_3D('',#585,#480,#481);
#390=AXIS2_PLACEMENT_3D('',#586,#482,#483);
#391=AXIS2_PLACEMENT_3D('',#587,#484,#485);
#392=AXIS2_PLACEMENT_3D('',#593,#489,#490);
#393=AXIS2_PLACEMENT_3D('',#594,#491,#492);
#394=AXIS2_PLACEMENT_3D('',#595,#493,#494);
#395=AXIS2_PLACEMENT_3D('',#596,#495,#496);
#396=AXIS2_PLACEMENT_3D('',#597,#497,#498);
#397=DIRECTION('axis',(0.,0.,1.));
#398=DIRECTION('refdir',(1.,0.,0.));
#399=DIRECTION('center_axis',(0.,0.,-1.));
#400=DIRECTION('ref_axis',(-1.,0.,0.));
#401=DIRECTION('center_axis',(0.,0.,-1.));
#402=DIRECTION('ref_axis',(1.,0.,0.));
#403=DIRECTION('',(0.,0.,-1.));
#404=DIRECTION('center_axis',(0.,0.,-1.));
#405=DIRECTION('ref_axis',(1.,0.,0.));
#406=DIRECTION('',(0.,0.,-1.));
#407=DIRECTION('center_axis',(0.,0.,-1.));
#408=DIRECTION('ref_axis',(-1.,0.,0.));
#409=DIRECTION('center_axis',(0.,0.,1.));
#410=DIRECTION('ref_axis',(1.,0.,0.));
#411=DIRECTION('',(0.,0.,-1.));
#412=DIRECTION('center_axis',(0.,0.,1.));
#413=DIRECTION('ref_axis',(1.,0.,0.));
#414=DIRECTION('',(0.,0.,-1.));
#415=DIRECTION('center_axis',(0.,0.,-1.));
#416=DIRECTION('ref_axis',(-1.,0.,0.));
#417=DIRECTION('center_axis',(0.,0.,-1.));
#418=DIRECTION('ref_axis',(1.,0.,0.));
#419=DIRECTION('',(0.,0.,-1.));
#420=DIRECTION('center_axis',(0.,0.,-1.));
#421=DIRECTION('ref_axis',(1.,0.,0.));
#422=DIRECTION('',(0.,0.,-1.));
#423=DIRECTION('center_axis',(0.,0.,-1.));
#424=DIRECTION('ref_axis',(-1.,0.,0.));
#425=DIRECTION('center_axis',(0.,0.,1.));
#426=DIRECTION('ref_axis',(1.,0.,0.));
#427=DIRECTION('',(0.,0.,-1.));
#428=DIRECTION('center_axis',(0.,0.,1.));
#429=DIRECTION('ref_axis',(1.,0.,0.));
#430=DIRECTION('',(0.,0.,-1.));
#431=DIRECTION('center_axis',(0.866025403788776,0.499999999992487,0.));
#432=DIRECTION('ref_axis',(-0.499999999992487,0.866025403788777,0.));
#433=DIRECTION('',(0.499999999992487,-0.866025403788776,0.));
#434=DIRECTION('',(0.,0.,-1.));
#435=DIRECTION('',(0.499999999992487,-0.866025403788776,0.));
#436=DIRECTION('center_axis',(-0.500000000003599,0.86602540378236,0.));
#437=DIRECTION('ref_axis',(-0.866025403782361,-0.5000000000036,0.));
#438=DIRECTION('',(0.86602540378236,0.500000000003599,0.));
#439=DIRECTION('',(0.,0.,-1.));
#440=DIRECTION('',(0.86602540378236,0.500000000003599,0.));
#441=DIRECTION('center_axis',(-0.866025403784963,-0.499999999999092,0.));
#442=DIRECTION('ref_axis',(0.499999999999092,-0.866025403784963,0.));
#443=DIRECTION('',(-0.499999999999092,0.866025403784963,0.));
#444=DIRECTION('',(-0.499999999999092,0.866025403784963,0.));
#445=DIRECTION('center_axis',(0.,0.,-1.));
#446=DIRECTION('ref_axis',(0.949585458761635,0.313508303731265,0.));
#447=DIRECTION('center_axis',(0.,0.,1.));
#448=DIRECTION('ref_axis',(1.,0.,0.));
#449=DIRECTION('',(0.,0.,-1.));
#450=DIRECTION('center_axis',(0.,0.,1.));
#451=DIRECTION('ref_axis',(1.,0.,0.));
#452=DIRECTION('center_axis',(-1.72701359386135E-14,-1.,0.));
#453=DIRECTION('ref_axis',(1.,-1.72701359386135E-14,0.));
#454=DIRECTION('',(-1.,1.72701359386135E-14,0.));
#455=DIRECTION('',(-1.,1.72701359386135E-14,0.));
#456=DIRECTION('center_axis',(0.,0.,-1.));
#457=DIRECTION('ref_axis',(0.97911928221758,0.203286574051833,0.));
#458=DIRECTION('center_axis',(0.,0.,-1.));
#459=DIRECTION('ref_axis',(1.,0.,0.));
#460=DIRECTION('',(0.,0.,-1.));
#461=DIRECTION('center_axis',(0.,0.,-1.));
#462=DIRECTION('ref_axis',(1.,0.,0.));
#463=DIRECTION('center_axis',(0.866025403784963,-0.499999999999092,0.));
#464=DIRECTION('ref_axis',(0.499999999999092,0.866025403784963,0.));
#465=DIRECTION('',(-0.499999999999092,-0.866025403784963,0.));
#466=DIRECTION('',(0.,0.,-1.));
#467=DIRECTION('',(-0.499999999999092,-0.866025403784963,0.));
#468=DIRECTION('center_axis',(0.500000000003119,0.866025403782638,0.));
#469=DIRECTION('ref_axis',(-0.866025403782638,0.500000000003119,0.));
#470=DIRECTION('',(0.866025403782638,-0.500000000003119,0.));
#471=DIRECTION('',(0.,0.,-1.));
#472=DIRECTION('',(0.866025403782638,-0.500000000003119,0.));
#473=DIRECTION('center_axis',(-0.866025403788776,0.499999999992487,0.));
#474=DIRECTION('ref_axis',(-0.499999999992487,-0.866025403788777,0.));
#475=DIRECTION('',(0.499999999992487,0.866025403788776,0.));
#476=DIRECTION('',(0.,0.,-1.));
#477=DIRECTION('',(0.499999999992487,0.866025403788776,0.));
#478=DIRECTION('center_axis',(0.,0.,-1.));
#479=DIRECTION('ref_axis',(0.979119282217485,0.203286574052289,0.));
#480=DIRECTION('center_axis',(0.,0.,1.));
#481=DIRECTION('ref_axis',(1.,0.,0.));
#482=DIRECTION('center_axis',(0.,0.,1.));
#483=DIRECTION('ref_axis',(1.,0.,0.));
#484=DIRECTION('center_axis',(0.,1.,0.));
#485=DIRECTION('ref_axis',(0.,0.,1.));
#486=DIRECTION('',(1.,0.,0.));
#487=DIRECTION('',(0.,0.,-1.));
#488=DIRECTION('',(1.,0.,0.));
#489=DIRECTION('center_axis',(0.,0.,-1.));
#490=DIRECTION('ref_axis',(0.949585458761623,0.3135083037313,0.));
#491=DIRECTION('center_axis',(0.,0.,-1.));
#492=DIRECTION('ref_axis',(1.,0.,0.));
#493=DIRECTION('center_axis',(0.,0.,-1.));
#494=DIRECTION('ref_axis',(1.,0.,0.));
#495=DIRECTION('center_axis',(0.,0.,1.));
#496=DIRECTION('ref_axis',(1.,0.,0.));
#497=DIRECTION('center_axis',(0.,0.,1.));
#498=DIRECTION('ref_axis',(1.,0.,0.));
#499=CARTESIAN_POINT('',(0.,0.,0.));
#500=CARTESIAN_POINT('Origin',(4228.0154567184,-2240.96596785728,22.));
#501=CARTESIAN_POINT('',(4219.67977477853,-2252.21391907505,22.));
#502=CARTESIAN_POINT('',(4228.0154567184,-2226.96596785728,22.));
#503=CARTESIAN_POINT('Origin',(4228.0154567184,-2240.96596785728,22.));
#504=CARTESIAN_POINT('',(4219.67977477853,-2252.21391907505,0.));
#505=CARTESIAN_POINT('',(4219.67977477853,-2252.21391907505,22.));
#506=CARTESIAN_POINT('',(4228.0154567184,-2226.96596785728,0.));
#507=CARTESIAN_POINT('Origin',(4228.0154567184,-2240.96596785728,0.));
#508=CARTESIAN_POINT('',(4228.0154567184,-2226.96596785728,22.));
#509=CARTESIAN_POINT('Origin',(4228.0154567184,-2240.96596785728,22.));
#510=CARTESIAN_POINT('',(4228.0154567184,-2226.16596785728,22.));
#511=CARTESIAN_POINT('',(4219.20345009639,-2252.85665914445,22.));
#512=CARTESIAN_POINT('Origin',(4228.0154567184,-2240.96596785728,22.));
#513=CARTESIAN_POINT('',(4228.0154567184,-2226.16596785728,0.));
#514=CARTESIAN_POINT('',(4228.0154567184,-2226.16596785728,22.));
#515=CARTESIAN_POINT('',(4219.20345009639,-2252.85665914445,0.));
#516=CARTESIAN_POINT('Origin',(4228.0154567184,-2240.96596785728,0.));
#517=CARTESIAN_POINT('',(4219.20345009639,-2252.85665914445,22.));
#518=CARTESIAN_POINT('Origin',(4417.42286919312,-2253.66008423125,22.));
#519=CARTESIAN_POINT('',(4416.55684378954,-2254.16008423114,22.));
#520=CARTESIAN_POINT('',(4416.82746334056,-2252.85665914463,22.));
#521=CARTESIAN_POINT('Origin',(4417.42286919312,-2253.66008423125,22.));
#522=CARTESIAN_POINT('',(4416.55684378954,-2254.16008423114,0.));
#523=CARTESIAN_POINT('',(4416.55684378954,-2254.16008423114,22.));
#524=CARTESIAN_POINT('',(4416.82746334056,-2252.85665914463,0.));
#525=CARTESIAN_POINT('Origin',(4417.42286919312,-2253.66008423125,0.));
#526=CARTESIAN_POINT('',(4416.82746334056,-2252.85665914463,22.));
#527=CARTESIAN_POINT('Origin',(4417.42286919312,-2253.66008423125,22.));
#528=CARTESIAN_POINT('',(4416.35113865828,-2252.21391907504,22.));
#529=CARTESIAN_POINT('',(4415.86402346631,-2254.56008423125,22.));
#530=CARTESIAN_POINT('Origin',(4417.42286919312,-2253.66008423125,22.));
#531=CARTESIAN_POINT('',(4416.35113865828,-2252.21391907504,0.));
#532=CARTESIAN_POINT('',(4416.35113865828,-2252.21391907504,22.));
#533=CARTESIAN_POINT('',(4415.86402346631,-2254.56008423125,0.));
#534=CARTESIAN_POINT('Origin',(4417.42286919312,-2253.66008423125,0.));
#535=CARTESIAN_POINT('',(4415.86402346631,-2254.56008423125,22.));
#536=CARTESIAN_POINT('Origin',(4415.86402346631,-2254.56008423125,22.));
#537=CARTESIAN_POINT('',(4417.59836048703,-2257.56404406865,0.));
#538=CARTESIAN_POINT('',(4415.86402346631,-2254.56008423125,0.));
#539=CARTESIAN_POINT('',(4417.59836048703,-2257.56404406865,22.));
#540=CARTESIAN_POINT('',(4417.59836048703,-2257.56404406865,22.));
#541=CARTESIAN_POINT('',(4415.86402346631,-2254.56008423125,22.));
#542=CARTESIAN_POINT('Origin',(4417.59836048703,-2257.56404406865,22.));
#543=CARTESIAN_POINT('',(4418.29118081008,-2257.16404406863,0.));
#544=CARTESIAN_POINT('',(4417.59836048703,-2257.56404406865,0.));
#545=CARTESIAN_POINT('',(4418.29118081008,-2257.16404406863,22.));
#546=CARTESIAN_POINT('',(4418.29118081008,-2257.16404406863,22.));
#547=CARTESIAN_POINT('',(4417.59836048703,-2257.56404406865,22.));
#548=CARTESIAN_POINT('Origin',(4416.55684378934,-2254.16008423125,22.));
#549=CARTESIAN_POINT('',(4416.55684378934,-2254.16008423125,0.));
#550=CARTESIAN_POINT('',(4416.55684378934,-2254.16008423125,22.));
#551=CARTESIAN_POINT('Origin',(4408.0154567184,-2240.96596785728,22.));
#552=CARTESIAN_POINT('',(4408.0154567184,-2226.16596785728,0.));
#553=CARTESIAN_POINT('Origin',(4408.0154567184,-2240.96596785728,0.));
#554=CARTESIAN_POINT('',(4408.0154567184,-2226.16596785728,22.));
#555=CARTESIAN_POINT('',(4408.0154567184,-2226.16596785728,22.));
#556=CARTESIAN_POINT('Origin',(4408.0154567184,-2240.96596785728,22.));
#557=CARTESIAN_POINT('Origin',(4228.0154567184,-2226.16596785727,22.));
#558=CARTESIAN_POINT('',(4228.0154567184,-2226.16596785727,0.));
#559=CARTESIAN_POINT('',(4228.0154567184,-2226.16596785727,22.));
#560=CARTESIAN_POINT('Origin',(4218.60804424367,-2253.66008423125,22.));
#561=CARTESIAN_POINT('',(4219.47406964746,-2254.16008423125,0.));
#562=CARTESIAN_POINT('Origin',(4218.60804424367,-2253.66008423125,0.));
#563=CARTESIAN_POINT('',(4219.47406964746,-2254.16008423125,22.));
#564=CARTESIAN_POINT('',(4219.47406964746,-2254.16008423125,22.));
#565=CARTESIAN_POINT('Origin',(4218.60804424367,-2253.66008423125,22.));
#566=CARTESIAN_POINT('Origin',(4219.47406964746,-2254.16008423125,22.));
#567=CARTESIAN_POINT('',(4217.73973262672,-2257.16404406863,0.));
#568=CARTESIAN_POINT('',(4219.47406964746,-2254.16008423125,0.));
#569=CARTESIAN_POINT('',(4217.73973262672,-2257.16404406863,22.));
#570=CARTESIAN_POINT('',(4217.73973262672,-2257.16404406863,22.));
#571=CARTESIAN_POINT('',(4219.47406964746,-2254.16008423125,22.));
#572=CARTESIAN_POINT('Origin',(4218.43255294977,-2257.56404406865,22.));
#573=CARTESIAN_POINT('',(4218.43255294977,-2257.56404406865,0.));
#574=CARTESIAN_POINT('',(4218.43255294977,-2257.56404406865,0.));
#575=CARTESIAN_POINT('',(4218.43255294977,-2257.56404406865,22.));
#576=CARTESIAN_POINT('',(4218.43255294977,-2257.56404406865,22.));
#577=CARTESIAN_POINT('',(4218.43255294977,-2257.56404406865,22.));
#578=CARTESIAN_POINT('Origin',(4220.16688997049,-2254.56008423125,22.));
#579=CARTESIAN_POINT('',(4220.16688997029,-2254.56008423114,0.));
#580=CARTESIAN_POINT('',(4220.16688997049,-2254.56008423125,0.));
#581=CARTESIAN_POINT('',(4220.16688997029,-2254.56008423114,22.));
#582=CARTESIAN_POINT('',(4220.16688997029,-2254.56008423114,22.));
#583=CARTESIAN_POINT('',(4220.16688997049,-2254.56008423125,22.));
#584=CARTESIAN_POINT('Origin',(4218.60804424367,-2253.66008423125,22.));
#585=CARTESIAN_POINT('Origin',(4218.60804424367,-2253.66008423125,0.));
#586=CARTESIAN_POINT('Origin',(4218.60804424367,-2253.66008423125,22.));
#587=CARTESIAN_POINT('Origin',(4228.0154567184,-2226.96596785728,22.));
#588=CARTESIAN_POINT('',(4408.0154567184,-2226.96596785728,0.));
#589=CARTESIAN_POINT('',(4228.0154567184,-2226.96596785728,0.));
#590=CARTESIAN_POINT('',(4408.0154567184,-2226.96596785728,22.));
#591=CARTESIAN_POINT('',(4408.0154567184,-2226.96596785728,22.));
#592=CARTESIAN_POINT('',(4228.0154567184,-2226.96596785728,22.));
#593=CARTESIAN_POINT('Origin',(4408.0154567184,-2240.96596785728,22.));
#594=CARTESIAN_POINT('Origin',(4408.0154567184,-2240.96596785728,0.));
#595=CARTESIAN_POINT('Origin',(4408.0154567184,-2240.96596785728,22.));
#596=CARTESIAN_POINT('Origin',(4417.42286919312,-2253.66008423125,22.));
#597=CARTESIAN_POINT('Origin',(4417.42286919312,-2253.66008423125,0.));
#598=UNCERTAINTY_MEASURE_WITH_UNIT(LENGTH_MEASURE(0.01),#602,
'DISTANCE_ACCURACY_VALUE',
'Maximum model space distance between geometric entities at asserted c
onnectivities');
#599=UNCERTAINTY_MEASURE_WITH_UNIT(LENGTH_MEASURE(0.01),#602,
'DISTANCE_ACCURACY_VALUE',
'Maximum model space distance between geometric entities at asserted c
onnectivities');
#600=(
GEOMETRIC_REPRESENTATION_CONTEXT(3)
GLOBAL_UNCERTAINTY_ASSIGNED_CONTEXT((#598))
GLOBAL_UNIT_ASSIGNED_CONTEXT((#602,#604,#605))
REPRESENTATION_CONTEXT('','3D')
);
#601=(
GEOMETRIC_REPRESENTATION_CONTEXT(3)
GLOBAL_UNCERTAINTY_ASSIGNED_CONTEXT((#599))
GLOBAL_UNIT_ASSIGNED_CONTEXT((#602,#604,#605))
REPRESENTATION_CONTEXT('','3D')
);
#602=(
LENGTH_UNIT()
NAMED_UNIT(*)
SI_UNIT(.MILLI.,.METRE.)
);
#603=(
LENGTH_UNIT()
NAMED_UNIT(*)
SI_UNIT(.CENTI.,.METRE.)
);
#604=(
NAMED_UNIT(*)
PLANE_ANGLE_UNIT()
SI_UNIT($,.RADIAN.)
);
#605=(
NAMED_UNIT(*)
SI_UNIT($,.STERADIAN.)
SOLID_ANGLE_UNIT()
);
#606=SHAPE_DEFINITION_REPRESENTATION(#607,#608);
#607=PRODUCT_DEFINITION_SHAPE('',$,#610);
#608=SHAPE_REPRESENTATION('',(#362),#600);
#609=PRODUCT_DEFINITION_CONTEXT('part definition',#614,'design');
#610=PRODUCT_DEFINITION('TFS.D28.8.02.06','TFS.D28.8.02.06',#611,#609);
#611=PRODUCT_DEFINITION_FORMATION('\X\C8\X\CE\X\BA\X\CE',$,#616);
#612=PRODUCT_RELATED_PRODUCT_CATEGORY('TFS.D28.8.02.06',
'TFS.D28.8.02.06',(#616));
#613=APPLICATION_PROTOCOL_DEFINITION('international standard',
'automotive_design',2009,#614);
#614=APPLICATION_CONTEXT(
'Core Data for Automotive Mechanical Design Process');
#615=PRODUCT_CONTEXT('part definition',#614,'mechanical');
#616=PRODUCT('TFS.D28.8.02.06','TFS.D28.8.02.06','STEP AP214',(#615));
#617=PRESENTATION_STYLE_ASSIGNMENT((#618));
#618=SURFACE_STYLE_USAGE(.BOTH.,#621);
#619=SURFACE_STYLE_RENDERING_WITH_PROPERTIES($,#625,(#620));
#620=SURFACE_STYLE_TRANSPARENT(0.);
#621=SURFACE_SIDE_STYLE('',(#622,#619));
#622=SURFACE_STYLE_FILL_AREA(#623);
#623=FILL_AREA_STYLE('',(#624));
#624=FILL_AREA_STYLE_COLOUR('',#625);
#625=COLOUR_RGB('',0.63921568627451,0.666666666666667,0.67843137254902);
ENDSEC;
END-ISO-10303-21;
