ISO-10303-21;
HEADER;
/* Generated by software containing ST-Developer
 * from STEP Tools, Inc. (www.steptools.com) 
 */

FILE_DESCRIPTION(
/* description */ ('Profilo divisorio 16x48 canalina portacavi'),
/* implementation_level */ '2;1');

FILE_NAME(
/* name */ 'C:\\Users\\Stefan.Nesic\\Desktop\\01010STEP\\PGC1648.stp',
/* time_stamp */ '2022-06-18T10:00:09+02:00',
/* author */ ('Davide'),
/* organization */ (''),
/* preprocessor_version */ 'ST-DEVELOPER v18.1',
/* originating_system */ 'Autodesk Inventor 2021',
/* authorisation */ '');

FILE_SCHEMA (('AUTOMOTIVE_DESIGN { 1 0 10303 214 3 1 1 }'));
ENDSEC;

DATA;
#10=MECHANICAL_DESIGN_GEOMETRIC_PRESENTATION_REPRESENTATION('',(#13),#255);
#11=SHAPE_REPRESENTATION_RELATIONSHIP('SRR','None',#262,#12);
#12=ADVANCED_BREP_SHAPE_REPRESENTATION('',(#14),#254);
#13=STYLED_ITEM('',(#271),#14);
#14=MANIFOLD_SOLID_BREP('Solido1',#149);
#15=FACE_OUTER_BOUND('',#23,.T.);
#16=FACE_OUTER_BOUND('',#24,.T.);
#17=FACE_OUTER_BOUND('',#25,.T.);
#18=FACE_OUTER_BOUND('',#26,.T.);
#19=FACE_OUTER_BOUND('',#27,.T.);
#20=FACE_OUTER_BOUND('',#28,.T.);
#21=FACE_OUTER_BOUND('',#29,.T.);
#22=FACE_OUTER_BOUND('',#30,.T.);
#23=EDGE_LOOP('',(#97,#98,#99,#100,#101,#102));
#24=EDGE_LOOP('',(#103,#104,#105,#106));
#25=EDGE_LOOP('',(#107,#108,#109,#110));
#26=EDGE_LOOP('',(#111,#112,#113,#114));
#27=EDGE_LOOP('',(#115,#116,#117,#118));
#28=EDGE_LOOP('',(#119,#120,#121,#122));
#29=EDGE_LOOP('',(#123,#124,#125,#126));
#30=EDGE_LOOP('',(#127,#128,#129,#130,#131,#132));
#31=LINE('',#217,#49);
#32=LINE('',#219,#50);
#33=LINE('',#221,#51);
#34=LINE('',#223,#52);
#35=LINE('',#225,#53);
#36=LINE('',#226,#54);
#37=LINE('',#229,#55);
#38=LINE('',#231,#56);
#39=LINE('',#232,#57);
#40=LINE('',#235,#58);
#41=LINE('',#236,#59);
#42=LINE('',#239,#60);
#43=LINE('',#240,#61);
#44=LINE('',#243,#62);
#45=LINE('',#244,#63);
#46=LINE('',#247,#64);
#47=LINE('',#248,#65);
#48=LINE('',#250,#66);
#49=VECTOR('',#181,10.);
#50=VECTOR('',#182,10.);
#51=VECTOR('',#183,10.);
#52=VECTOR('',#184,10.);
#53=VECTOR('',#185,10.);
#54=VECTOR('',#186,10.);
#55=VECTOR('',#189,10.);
#56=VECTOR('',#190,10.);
#57=VECTOR('',#191,10.);
#58=VECTOR('',#194,10.);
#59=VECTOR('',#195,10.);
#60=VECTOR('',#198,10.);
#61=VECTOR('',#199,10.);
#62=VECTOR('',#202,10.);
#63=VECTOR('',#203,10.);
#64=VECTOR('',#206,10.);
#65=VECTOR('',#207,10.);
#66=VECTOR('',#210,10.);
#67=VERTEX_POINT('',#215);
#68=VERTEX_POINT('',#216);
#69=VERTEX_POINT('',#218);
#70=VERTEX_POINT('',#220);
#71=VERTEX_POINT('',#222);
#72=VERTEX_POINT('',#224);
#73=VERTEX_POINT('',#228);
#74=VERTEX_POINT('',#230);
#75=VERTEX_POINT('',#234);
#76=VERTEX_POINT('',#238);
#77=VERTEX_POINT('',#242);
#78=VERTEX_POINT('',#246);
#79=EDGE_CURVE('',#67,#68,#31,.T.);
#80=EDGE_CURVE('',#68,#69,#32,.T.);
#81=EDGE_CURVE('',#69,#70,#33,.T.);
#82=EDGE_CURVE('',#70,#71,#34,.T.);
#83=EDGE_CURVE('',#71,#72,#35,.T.);
#84=EDGE_CURVE('',#72,#67,#36,.T.);
#85=EDGE_CURVE('',#73,#68,#37,.T.);
#86=EDGE_CURVE('',#74,#73,#38,.T.);
#87=EDGE_CURVE('',#74,#69,#39,.T.);
#88=EDGE_CURVE('',#75,#74,#40,.T.);
#89=EDGE_CURVE('',#75,#70,#41,.T.);
#90=EDGE_CURVE('',#76,#75,#42,.T.);
#91=EDGE_CURVE('',#76,#71,#43,.T.);
#92=EDGE_CURVE('',#77,#76,#44,.T.);
#93=EDGE_CURVE('',#77,#72,#45,.T.);
#94=EDGE_CURVE('',#78,#77,#46,.T.);
#95=EDGE_CURVE('',#67,#78,#47,.T.);
#96=EDGE_CURVE('',#73,#78,#48,.T.);
#97=ORIENTED_EDGE('',*,*,#79,.T.);
#98=ORIENTED_EDGE('',*,*,#80,.T.);
#99=ORIENTED_EDGE('',*,*,#81,.T.);
#100=ORIENTED_EDGE('',*,*,#82,.T.);
#101=ORIENTED_EDGE('',*,*,#83,.T.);
#102=ORIENTED_EDGE('',*,*,#84,.T.);
#103=ORIENTED_EDGE('',*,*,#85,.F.);
#104=ORIENTED_EDGE('',*,*,#86,.F.);
#105=ORIENTED_EDGE('',*,*,#87,.T.);
#106=ORIENTED_EDGE('',*,*,#80,.F.);
#107=ORIENTED_EDGE('',*,*,#87,.F.);
#108=ORIENTED_EDGE('',*,*,#88,.F.);
#109=ORIENTED_EDGE('',*,*,#89,.T.);
#110=ORIENTED_EDGE('',*,*,#81,.F.);
#111=ORIENTED_EDGE('',*,*,#89,.F.);
#112=ORIENTED_EDGE('',*,*,#90,.F.);
#113=ORIENTED_EDGE('',*,*,#91,.T.);
#114=ORIENTED_EDGE('',*,*,#82,.F.);
#115=ORIENTED_EDGE('',*,*,#91,.F.);
#116=ORIENTED_EDGE('',*,*,#92,.F.);
#117=ORIENTED_EDGE('',*,*,#93,.T.);
#118=ORIENTED_EDGE('',*,*,#83,.F.);
#119=ORIENTED_EDGE('',*,*,#93,.F.);
#120=ORIENTED_EDGE('',*,*,#94,.F.);
#121=ORIENTED_EDGE('',*,*,#95,.F.);
#122=ORIENTED_EDGE('',*,*,#84,.F.);
#123=ORIENTED_EDGE('',*,*,#95,.T.);
#124=ORIENTED_EDGE('',*,*,#96,.F.);
#125=ORIENTED_EDGE('',*,*,#85,.T.);
#126=ORIENTED_EDGE('',*,*,#79,.F.);
#127=ORIENTED_EDGE('',*,*,#96,.T.);
#128=ORIENTED_EDGE('',*,*,#94,.T.);
#129=ORIENTED_EDGE('',*,*,#92,.T.);
#130=ORIENTED_EDGE('',*,*,#90,.T.);
#131=ORIENTED_EDGE('',*,*,#88,.T.);
#132=ORIENTED_EDGE('',*,*,#86,.T.);
#133=PLANE('',#169);
#134=PLANE('',#170);
#135=PLANE('',#171);
#136=PLANE('',#172);
#137=PLANE('',#173);
#138=PLANE('',#174);
#139=PLANE('',#175);
#140=PLANE('',#176);
#141=ADVANCED_FACE('',(#15),#133,.T.);
#142=ADVANCED_FACE('',(#16),#134,.T.);
#143=ADVANCED_FACE('',(#17),#135,.T.);
#144=ADVANCED_FACE('',(#18),#136,.T.);
#145=ADVANCED_FACE('',(#19),#137,.T.);
#146=ADVANCED_FACE('',(#20),#138,.T.);
#147=ADVANCED_FACE('',(#21),#139,.T.);
#148=ADVANCED_FACE('',(#22),#140,.T.);
#149=CLOSED_SHELL('',(#141,#142,#143,#144,#145,#146,#147,#148));
#150=DERIVED_UNIT_ELEMENT(#152,1.);
#151=DERIVED_UNIT_ELEMENT(#257,-3.);
#152=(
MASS_UNIT()
NAMED_UNIT(*)
SI_UNIT($,.GRAM.)
);
#153=DERIVED_UNIT((#150,#151));
#154=MEASURE_REPRESENTATION_ITEM('density measure',
POSITIVE_RATIO_MEASURE(2.7),#153);
#155=PROPERTY_DEFINITION_REPRESENTATION(#160,#157);
#156=PROPERTY_DEFINITION_REPRESENTATION(#161,#158);
#157=REPRESENTATION('material name',(#159),#254);
#158=REPRESENTATION('density',(#154),#254);
#159=DESCRIPTIVE_REPRESENTATION_ITEM('Alluminio 6061','Alluminio 6061');
#160=PROPERTY_DEFINITION('material property','material name',#264);
#161=PROPERTY_DEFINITION('material property','density of part',#264);
#162=DATE_TIME_ROLE('creation_date');
#163=APPLIED_DATE_AND_TIME_ASSIGNMENT(#164,#162,(#264));
#164=DATE_AND_TIME(#165,#166);
#165=CALENDAR_DATE(2019,23,2);
#166=LOCAL_TIME(0,0,0.,#167);
#167=COORDINATED_UNIVERSAL_TIME_OFFSET(0,0,.BEHIND.);
#168=AXIS2_PLACEMENT_3D('placement',#213,#177,#178);
#169=AXIS2_PLACEMENT_3D('',#214,#179,#180);
#170=AXIS2_PLACEMENT_3D('',#227,#187,#188);
#171=AXIS2_PLACEMENT_3D('',#233,#192,#193);
#172=AXIS2_PLACEMENT_3D('',#237,#196,#197);
#173=AXIS2_PLACEMENT_3D('',#241,#200,#201);
#174=AXIS2_PLACEMENT_3D('',#245,#204,#205);
#175=AXIS2_PLACEMENT_3D('',#249,#208,#209);
#176=AXIS2_PLACEMENT_3D('',#251,#211,#212);
#177=DIRECTION('axis',(0.,0.,1.));
#178=DIRECTION('refdir',(1.,0.,0.));
#179=DIRECTION('center_axis',(0.,0.,-1.));
#180=DIRECTION('ref_axis',(-1.,0.,0.));
#181=DIRECTION('',(0.,1.,0.));
#182=DIRECTION('',(1.,0.,0.));
#183=DIRECTION('',(-1.20676415720126E-17,-1.,0.));
#184=DIRECTION('',(1.,1.98254111540206E-17,0.));
#185=DIRECTION('',(0.,-1.,0.));
#186=DIRECTION('',(-1.,-4.28626379701574E-16,0.));
#187=DIRECTION('center_axis',(0.,1.,0.));
#188=DIRECTION('ref_axis',(-1.,0.,0.));
#189=DIRECTION('',(0.,0.,-1.));
#190=DIRECTION('',(-1.,0.,0.));
#191=DIRECTION('',(0.,0.,-1.));
#192=DIRECTION('center_axis',(1.,-1.20676415720126E-17,0.));
#193=DIRECTION('ref_axis',(1.20676415720126E-17,1.,0.));
#194=DIRECTION('',(1.20676415720126E-17,1.,0.));
#195=DIRECTION('',(0.,0.,-1.));
#196=DIRECTION('center_axis',(-1.98254111540206E-17,1.,0.));
#197=DIRECTION('ref_axis',(-1.,-1.98254111540206E-17,0.));
#198=DIRECTION('',(-1.,-1.98254111540206E-17,0.));
#199=DIRECTION('',(0.,0.,-1.));
#200=DIRECTION('center_axis',(1.,0.,0.));
#201=DIRECTION('ref_axis',(0.,1.,0.));
#202=DIRECTION('',(0.,1.,0.));
#203=DIRECTION('',(0.,0.,-1.));
#204=DIRECTION('center_axis',(4.28626379701574E-16,-1.,0.));
#205=DIRECTION('ref_axis',(1.,4.28626379701574E-16,0.));
#206=DIRECTION('',(1.,4.28626379701574E-16,0.));
#207=DIRECTION('',(0.,0.,1.));
#208=DIRECTION('center_axis',(-1.,0.,0.));
#209=DIRECTION('ref_axis',(0.,-1.,0.));
#210=DIRECTION('',(0.,-1.,0.));
#211=DIRECTION('center_axis',(0.,0.,1.));
#212=DIRECTION('ref_axis',(1.,0.,0.));
#213=CARTESIAN_POINT('',(0.,0.,0.));
#214=CARTESIAN_POINT('Origin',(2.96875,18.96875,-0.5));
#215=CARTESIAN_POINT('',(0.,0.,-0.5));
#216=CARTESIAN_POINT('',(0.,48.,-0.5));
#217=CARTESIAN_POINT('',(0.,0.,-0.5));
#218=CARTESIAN_POINT('',(2.,48.,-0.5));
#219=CARTESIAN_POINT('',(0.,48.,-0.5));
#220=CARTESIAN_POINT('',(2.,2.,-0.5));
#221=CARTESIAN_POINT('',(2.,48.,-0.5));
#222=CARTESIAN_POINT('',(16.,2.,-0.5));
#223=CARTESIAN_POINT('',(2.,2.,-0.5));
#224=CARTESIAN_POINT('',(16.,6.85802207522518E-15,-0.5));
#225=CARTESIAN_POINT('',(16.,2.,-0.5));
#226=CARTESIAN_POINT('',(16.,6.85802207522518E-15,-0.5));
#227=CARTESIAN_POINT('Origin',(2.,48.,0.));
#228=CARTESIAN_POINT('',(0.,48.,0.5));
#229=CARTESIAN_POINT('',(0.,48.,0.));
#230=CARTESIAN_POINT('',(2.,48.,0.5));
#231=CARTESIAN_POINT('',(0.,48.,0.5));
#232=CARTESIAN_POINT('',(2.,48.,0.));
#233=CARTESIAN_POINT('Origin',(2.,2.,0.));
#234=CARTESIAN_POINT('',(2.,2.,0.5));
#235=CARTESIAN_POINT('',(2.,48.,0.5));
#236=CARTESIAN_POINT('',(2.,2.,0.));
#237=CARTESIAN_POINT('Origin',(16.,2.,0.));
#238=CARTESIAN_POINT('',(16.,2.,0.5));
#239=CARTESIAN_POINT('',(2.,2.,0.5));
#240=CARTESIAN_POINT('',(16.,2.,0.));
#241=CARTESIAN_POINT('Origin',(16.,6.93889390390723E-15,0.));
#242=CARTESIAN_POINT('',(16.,6.85802207522518E-15,0.5));
#243=CARTESIAN_POINT('',(16.,2.,0.5));
#244=CARTESIAN_POINT('',(16.,6.85802207522518E-15,0.));
#245=CARTESIAN_POINT('Origin',(0.,0.,0.));
#246=CARTESIAN_POINT('',(0.,0.,0.5));
#247=CARTESIAN_POINT('',(16.,6.85802207522518E-15,0.5));
#248=CARTESIAN_POINT('',(0.,0.,0.));
#249=CARTESIAN_POINT('Origin',(0.,48.,0.));
#250=CARTESIAN_POINT('',(0.,0.,0.5));
#251=CARTESIAN_POINT('Origin',(2.96875,18.96875,0.5));
#252=UNCERTAINTY_MEASURE_WITH_UNIT(LENGTH_MEASURE(0.01),#256,
'DISTANCE_ACCURACY_VALUE',
'Maximum model space distance between geometric entities at asserted c
onnectivities');
#253=UNCERTAINTY_MEASURE_WITH_UNIT(LENGTH_MEASURE(0.01),#256,
'DISTANCE_ACCURACY_VALUE',
'Maximum model space distance between geometric entities at asserted c
onnectivities');
#254=(
GEOMETRIC_REPRESENTATION_CONTEXT(3)
GLOBAL_UNCERTAINTY_ASSIGNED_CONTEXT((#252))
GLOBAL_UNIT_ASSIGNED_CONTEXT((#256,#258,#259))
REPRESENTATION_CONTEXT('','3D')
);
#255=(
GEOMETRIC_REPRESENTATION_CONTEXT(3)
GLOBAL_UNCERTAINTY_ASSIGNED_CONTEXT((#253))
GLOBAL_UNIT_ASSIGNED_CONTEXT((#256,#258,#259))
REPRESENTATION_CONTEXT('','3D')
);
#256=(
LENGTH_UNIT()
NAMED_UNIT(*)
SI_UNIT(.MILLI.,.METRE.)
);
#257=(
LENGTH_UNIT()
NAMED_UNIT(*)
SI_UNIT(.CENTI.,.METRE.)
);
#258=(
NAMED_UNIT(*)
PLANE_ANGLE_UNIT()
SI_UNIT($,.RADIAN.)
);
#259=(
NAMED_UNIT(*)
SI_UNIT($,.STERADIAN.)
SOLID_ANGLE_UNIT()
);
#260=SHAPE_DEFINITION_REPRESENTATION(#261,#262);
#261=PRODUCT_DEFINITION_SHAPE('',$,#264);
#262=SHAPE_REPRESENTATION('',(#168),#254);
#263=PRODUCT_DEFINITION_CONTEXT('part definition',#268,'design');
#264=PRODUCT_DEFINITION('PGC1648_L=1000','PGC1648_L=1000',#265,#263);
#265=PRODUCT_DEFINITION_FORMATION('A00',$,#270);
#266=PRODUCT_RELATED_PRODUCT_CATEGORY('PGC1648_L=1000','PGC1648_L=1000',
(#270));
#267=APPLICATION_PROTOCOL_DEFINITION('international standard',
'automotive_design',2009,#268);
#268=APPLICATION_CONTEXT(
'Core Data for Automotive Mechanical Design Process');
#269=PRODUCT_CONTEXT('part definition',#268,'mechanical');
#270=PRODUCT('PGC1648_L=1000','PGC1648_L=1000',
'Profilo divisorio 16x48 canalina portacavi',(#269));
#271=PRESENTATION_STYLE_ASSIGNMENT((#272));
#272=SURFACE_STYLE_USAGE(.BOTH.,#275);
#273=SURFACE_STYLE_RENDERING_WITH_PROPERTIES($,#279,(#274));
#274=SURFACE_STYLE_TRANSPARENT(0.);
#275=SURFACE_SIDE_STYLE('',(#276,#273));
#276=SURFACE_STYLE_FILL_AREA(#277);
#277=FILL_AREA_STYLE('',(#278));
#278=FILL_AREA_STYLE_COLOUR('',#279);
#279=COLOUR_RGB('',0.996078431372549,0.996078431372549,1.);
ENDSEC;
END-ISO-10303-21;
