ISO-10303-21;
HEADER;
/* Generated by software containing ST-Developer
 * from STEP Tools, Inc. (www.steptools.com) 
 */

FILE_DESCRIPTION(
/* description */ ('STEP AP203'),
/* implementation_level */ '2;1');

FILE_NAME(
/* name */ 
'C:\\Users\\Stefan.Nesic\\Desktop\\01010STEP\\000Verifica\\CORRETTI\\P
CB45-08.stp',
/* time_stamp */ '2022-07-12T11:35:20+02:00',
/* author */ (''),
/* organization */ (''),
/* preprocessor_version */ 'ST-DEVELOPER v18.1',
/* originating_system */ 'Autodesk Inventor 2021',
/* authorisation */ '');

FILE_SCHEMA (('AUTOMOTIVE_DESIGN { 1 0 10303 214 3 1 1 }'));
ENDSEC;

DATA;
#10=MECHANICAL_DESIGN_GEOMETRIC_PRESENTATION_REPRESENTATION('',(#13),#460);
#11=SHAPE_REPRESENTATION_RELATIONSHIP('SRR','None',#467,#12);
#12=ADVANCED_BREP_SHAPE_REPRESENTATION('',(#14),#459);
#13=STYLED_ITEM('',(#476),#14);
#14=MANIFOLD_SOLID_BREP('Solido2',#222);
#15=B_SPLINE_CURVE_WITH_KNOTS('',3,(#369,#370,#371,#372,#373,#374,#375,
#376,#377,#378),.UNSPECIFIED.,.F.,.F.,(4,2,2,2,4),(0.,0.266770446050297,
0.533540892100595,0.797178281222278,1.06081567034396),.UNSPECIFIED.);
#16=B_SPLINE_CURVE_WITH_KNOTS('',3,(#380,#381,#382,#383,#384,#385,#386,
#387,#388,#389,#390,#391,#392,#393,#394,#395,#396,#397),.UNSPECIFIED.,.F.,
 .F.,(4,2,2,2,2,2,2,2,4),(-3.18244701103188,-2.9188096219102,-2.65517223278852,
-2.38840178673822,-2.12163134068792,-1.85486089463762,-1.58809044858733,
-1.32445305946564,-1.06081567034396),.UNSPECIFIED.);
#17=B_SPLINE_CURVE_WITH_KNOTS('',3,(#398,#399,#400,#401,#402,#403,#404,
#405,#406,#407),.UNSPECIFIED.,.F.,.F.,(4,2,2,2,4),(-1.06081567034396,-0.797178281222278,
-0.533540892100596,-0.266770446050298,0.),.UNSPECIFIED.);
#18=B_SPLINE_CURVE_WITH_KNOTS('',3,(#410,#411,#412,#413,#414,#415,#416,
#417,#418,#419,#420,#421,#422,#423,#424,#425,#426,#427,#428,#429,#430,#431,
#432,#433,#434,#435,#436,#437,#438,#439,#440,#441,#442,#443),
 .UNSPECIFIED.,.T.,.F.,(4,2,2,2,2,2,2,2,2,2,2,2,2,2,2,2,4),(-2.59779962517753,
-2.43533009206228,-2.27286055894703,-2.11060513891509,-1.94834971888314,
-1.7860942988512,-1.62383887881926,-1.46136934570401,-1.29889981258876,
-1.13643027947351,-0.973960746358263,-0.811705326326322,-0.649449906294381,
-0.48719448626244,-0.324939066230499,-0.16246953311525,0.),
 .UNSPECIFIED.);
#19=CYLINDRICAL_SURFACE('',#255,6.75);
#20=CYLINDRICAL_SURFACE('',#256,4.25);
#21=CYLINDRICAL_SURFACE('',#261,10.);
#22=CONICAL_SURFACE('',#252,9.49999999999999,0.785398163397447);
#23=CONICAL_SURFACE('',#257,10.,0.785398163397448);
#24=FACE_BOUND('',#52,.T.);
#25=FACE_BOUND('',#59,.T.);
#26=CIRCLE('',#244,10.);
#27=CIRCLE('',#248,6.75);
#28=CIRCLE('',#249,4.25);
#29=CIRCLE('',#251,9.49999999999999);
#30=CIRCLE('',#253,10.);
#31=CIRCLE('',#254,10.);
#32=CIRCLE('',#258,10.);
#33=CIRCLE('',#259,10.);
#34=CIRCLE('',#260,9.5);
#35=FACE_OUTER_BOUND('',#47,.T.);
#36=FACE_OUTER_BOUND('',#48,.T.);
#37=FACE_OUTER_BOUND('',#49,.T.);
#38=FACE_OUTER_BOUND('',#50,.T.);
#39=FACE_OUTER_BOUND('',#51,.T.);
#40=FACE_OUTER_BOUND('',#53,.T.);
#41=FACE_OUTER_BOUND('',#54,.T.);
#42=FACE_OUTER_BOUND('',#55,.T.);
#43=FACE_OUTER_BOUND('',#56,.T.);
#44=FACE_OUTER_BOUND('',#57,.T.);
#45=FACE_OUTER_BOUND('',#58,.T.);
#46=FACE_OUTER_BOUND('',#60,.T.);
#47=EDGE_LOOP('',(#143,#144,#145,#146,#147));
#48=EDGE_LOOP('',(#148,#149,#150,#151));
#49=EDGE_LOOP('',(#152,#153,#154,#155,#156));
#50=EDGE_LOOP('',(#157,#158,#159,#160));
#51=EDGE_LOOP('',(#161));
#52=EDGE_LOOP('',(#162));
#53=EDGE_LOOP('',(#163,#164,#165,#166));
#54=EDGE_LOOP('',(#167,#168,#169,#170,#171));
#55=EDGE_LOOP('',(#172,#173,#174,#175,#176,#177));
#56=EDGE_LOOP('',(#178,#179,#180,#181));
#57=EDGE_LOOP('',(#182,#183,#184,#185,#186));
#58=EDGE_LOOP('',(#187,#188,#189,#190,#191,#192,#193,#194,#195,#196,#197,
#198,#199,#200));
#59=EDGE_LOOP('',(#201));
#60=EDGE_LOOP('',(#202));
#61=LINE('',#330,#76);
#62=LINE('',#332,#77);
#63=LINE('',#334,#78);
#64=LINE('',#335,#79);
#65=LINE('',#340,#80);
#66=LINE('',#341,#81);
#67=LINE('',#344,#82);
#68=LINE('',#350,#83);
#69=LINE('',#351,#84);
#70=LINE('',#353,#85);
#71=LINE('',#367,#86);
#72=LINE('',#444,#87);
#73=LINE('',#451,#88);
#74=LINE('',#454,#89);
#75=LINE('',#455,#90);
#76=VECTOR('',#267,10.);
#77=VECTOR('',#268,10.);
#78=VECTOR('',#269,10.);
#79=VECTOR('',#270,10.);
#80=VECTOR('',#275,10.);
#81=VECTOR('',#276,10.);
#82=VECTOR('',#279,10.);
#83=VECTOR('',#280,10.);
#84=VECTOR('',#281,10.);
#85=VECTOR('',#284,10.);
#86=VECTOR('',#303,6.75);
#87=VECTOR('',#306,4.25);
#88=VECTOR('',#313,10.);
#89=VECTOR('',#318,10.);
#90=VECTOR('',#319,10.);
#91=(
BOUNDED_CURVE()
B_SPLINE_CURVE(2,(#326,#327,#328),.UNSPECIFIED.,.F.,.F.)
B_SPLINE_CURVE_WITH_KNOTS((3,3),(0.336616895802528,0.415982128913236),
 .UNSPECIFIED.)
CURVE()
GEOMETRIC_REPRESENTATION_ITEM()
RATIONAL_B_SPLINE_CURVE((1.01082954454777,1.01041310751815,1.00919829770378))
REPRESENTATION_ITEM('')
);
#92=(
BOUNDED_CURVE()
B_SPLINE_CURVE(2,(#346,#347,#348),.UNSPECIFIED.,.F.,.F.)
B_SPLINE_CURVE_WITH_KNOTS((3,3),(0.174456701335014,0.253821934445722),
 .UNSPECIFIED.)
CURVE()
GEOMETRIC_REPRESENTATION_ITEM()
RATIONAL_B_SPLINE_CURVE((1.00919829770376,1.01041310751813,1.01082954454774))
REPRESENTATION_ITEM('')
);
#93=VERTEX_POINT('',#324);
#94=VERTEX_POINT('',#325);
#95=VERTEX_POINT('',#329);
#96=VERTEX_POINT('',#331);
#97=VERTEX_POINT('',#333);
#98=VERTEX_POINT('',#337);
#99=VERTEX_POINT('',#339);
#100=VERTEX_POINT('',#343);
#101=VERTEX_POINT('',#345);
#102=VERTEX_POINT('',#349);
#103=VERTEX_POINT('',#355);
#104=VERTEX_POINT('',#357);
#105=VERTEX_POINT('',#362);
#106=VERTEX_POINT('',#366);
#107=VERTEX_POINT('',#368);
#108=VERTEX_POINT('',#379);
#109=VERTEX_POINT('',#409);
#110=VERTEX_POINT('',#446);
#111=VERTEX_POINT('',#447);
#112=VERTEX_POINT('',#450);
#113=EDGE_CURVE('',#93,#94,#91,.T.);
#114=EDGE_CURVE('',#95,#93,#61,.T.);
#115=EDGE_CURVE('',#96,#95,#62,.T.);
#116=EDGE_CURVE('',#97,#96,#63,.T.);
#117=EDGE_CURVE('',#94,#97,#64,.T.);
#118=EDGE_CURVE('',#98,#95,#26,.T.);
#119=EDGE_CURVE('',#98,#99,#65,.T.);
#120=EDGE_CURVE('',#99,#96,#66,.T.);
#121=EDGE_CURVE('',#100,#98,#67,.T.);
#122=EDGE_CURVE('',#101,#100,#92,.T.);
#123=EDGE_CURVE('',#102,#101,#68,.T.);
#124=EDGE_CURVE('',#102,#99,#69,.T.);
#125=EDGE_CURVE('',#97,#102,#70,.T.);
#126=EDGE_CURVE('',#103,#103,#27,.T.);
#127=EDGE_CURVE('',#104,#104,#28,.T.);
#128=EDGE_CURVE('',#101,#94,#29,.T.);
#129=EDGE_CURVE('',#105,#100,#30,.T.);
#130=EDGE_CURVE('',#93,#105,#31,.T.);
#131=EDGE_CURVE('',#103,#106,#71,.T.);
#132=EDGE_CURVE('',#107,#106,#15,.F.);
#133=EDGE_CURVE('',#108,#107,#16,.F.);
#134=EDGE_CURVE('',#106,#108,#17,.F.);
#135=EDGE_CURVE('',#109,#109,#18,.F.);
#136=EDGE_CURVE('',#109,#104,#72,.T.);
#137=EDGE_CURVE('',#110,#111,#32,.T.);
#138=EDGE_CURVE('',#111,#110,#33,.T.);
#139=EDGE_CURVE('',#111,#112,#73,.T.);
#140=EDGE_CURVE('',#112,#112,#34,.T.);
#141=EDGE_CURVE('',#110,#107,#74,.T.);
#142=EDGE_CURVE('',#108,#105,#75,.T.);
#143=ORIENTED_EDGE('',*,*,#113,.F.);
#144=ORIENTED_EDGE('',*,*,#114,.F.);
#145=ORIENTED_EDGE('',*,*,#115,.F.);
#146=ORIENTED_EDGE('',*,*,#116,.F.);
#147=ORIENTED_EDGE('',*,*,#117,.F.);
#148=ORIENTED_EDGE('',*,*,#118,.F.);
#149=ORIENTED_EDGE('',*,*,#119,.T.);
#150=ORIENTED_EDGE('',*,*,#120,.T.);
#151=ORIENTED_EDGE('',*,*,#115,.T.);
#152=ORIENTED_EDGE('',*,*,#121,.F.);
#153=ORIENTED_EDGE('',*,*,#122,.F.);
#154=ORIENTED_EDGE('',*,*,#123,.F.);
#155=ORIENTED_EDGE('',*,*,#124,.T.);
#156=ORIENTED_EDGE('',*,*,#119,.F.);
#157=ORIENTED_EDGE('',*,*,#125,.F.);
#158=ORIENTED_EDGE('',*,*,#116,.T.);
#159=ORIENTED_EDGE('',*,*,#120,.F.);
#160=ORIENTED_EDGE('',*,*,#124,.F.);
#161=ORIENTED_EDGE('',*,*,#126,.T.);
#162=ORIENTED_EDGE('',*,*,#127,.F.);
#163=ORIENTED_EDGE('',*,*,#117,.T.);
#164=ORIENTED_EDGE('',*,*,#125,.T.);
#165=ORIENTED_EDGE('',*,*,#123,.T.);
#166=ORIENTED_EDGE('',*,*,#128,.T.);
#167=ORIENTED_EDGE('',*,*,#113,.T.);
#168=ORIENTED_EDGE('',*,*,#128,.F.);
#169=ORIENTED_EDGE('',*,*,#122,.T.);
#170=ORIENTED_EDGE('',*,*,#129,.F.);
#171=ORIENTED_EDGE('',*,*,#130,.F.);
#172=ORIENTED_EDGE('',*,*,#126,.F.);
#173=ORIENTED_EDGE('',*,*,#131,.T.);
#174=ORIENTED_EDGE('',*,*,#132,.F.);
#175=ORIENTED_EDGE('',*,*,#133,.F.);
#176=ORIENTED_EDGE('',*,*,#134,.F.);
#177=ORIENTED_EDGE('',*,*,#131,.F.);
#178=ORIENTED_EDGE('',*,*,#135,.F.);
#179=ORIENTED_EDGE('',*,*,#136,.T.);
#180=ORIENTED_EDGE('',*,*,#127,.T.);
#181=ORIENTED_EDGE('',*,*,#136,.F.);
#182=ORIENTED_EDGE('',*,*,#137,.F.);
#183=ORIENTED_EDGE('',*,*,#138,.F.);
#184=ORIENTED_EDGE('',*,*,#139,.T.);
#185=ORIENTED_EDGE('',*,*,#140,.F.);
#186=ORIENTED_EDGE('',*,*,#139,.F.);
#187=ORIENTED_EDGE('',*,*,#137,.T.);
#188=ORIENTED_EDGE('',*,*,#138,.T.);
#189=ORIENTED_EDGE('',*,*,#141,.T.);
#190=ORIENTED_EDGE('',*,*,#132,.T.);
#191=ORIENTED_EDGE('',*,*,#134,.T.);
#192=ORIENTED_EDGE('',*,*,#142,.T.);
#193=ORIENTED_EDGE('',*,*,#129,.T.);
#194=ORIENTED_EDGE('',*,*,#121,.T.);
#195=ORIENTED_EDGE('',*,*,#118,.T.);
#196=ORIENTED_EDGE('',*,*,#114,.T.);
#197=ORIENTED_EDGE('',*,*,#130,.T.);
#198=ORIENTED_EDGE('',*,*,#142,.F.);
#199=ORIENTED_EDGE('',*,*,#133,.T.);
#200=ORIENTED_EDGE('',*,*,#141,.F.);
#201=ORIENTED_EDGE('',*,*,#135,.T.);
#202=ORIENTED_EDGE('',*,*,#140,.T.);
#203=PLANE('',#242);
#204=PLANE('',#243);
#205=PLANE('',#245);
#206=PLANE('',#246);
#207=PLANE('',#247);
#208=PLANE('',#250);
#209=PLANE('',#262);
#210=ADVANCED_FACE('',(#35),#203,.T.);
#211=ADVANCED_FACE('',(#36),#204,.T.);
#212=ADVANCED_FACE('',(#37),#205,.T.);
#213=ADVANCED_FACE('',(#38),#206,.T.);
#214=ADVANCED_FACE('',(#39,#24),#207,.F.);
#215=ADVANCED_FACE('',(#40),#208,.T.);
#216=ADVANCED_FACE('',(#41),#22,.T.);
#217=ADVANCED_FACE('',(#42),#19,.F.);
#218=ADVANCED_FACE('',(#43),#20,.F.);
#219=ADVANCED_FACE('',(#44),#23,.T.);
#220=ADVANCED_FACE('',(#45,#25),#21,.T.);
#221=ADVANCED_FACE('',(#46),#209,.F.);
#222=CLOSED_SHELL('',(#210,#211,#212,#213,#214,#215,#216,#217,#218,#219,
#220,#221));
#223=DERIVED_UNIT_ELEMENT(#225,1.);
#224=DERIVED_UNIT_ELEMENT(#462,-3.);
#225=(
MASS_UNIT()
NAMED_UNIT(*)
SI_UNIT($,.GRAM.)
);
#226=DERIVED_UNIT((#223,#224));
#227=MEASURE_REPRESENTATION_ITEM('density measure',
POSITIVE_RATIO_MEASURE(1.),#226);
#228=PROPERTY_DEFINITION_REPRESENTATION(#233,#230);
#229=PROPERTY_DEFINITION_REPRESENTATION(#234,#231);
#230=REPRESENTATION('material name',(#232),#459);
#231=REPRESENTATION('density',(#227),#459);
#232=DESCRIPTIVE_REPRESENTATION_ITEM('Generico','Generico');
#233=PROPERTY_DEFINITION('material property','material name',#469);
#234=PROPERTY_DEFINITION('material property','density of part',#469);
#235=DATE_TIME_ROLE('creation_date');
#236=APPLIED_DATE_AND_TIME_ASSIGNMENT(#237,#235,(#469));
#237=DATE_AND_TIME(#238,#239);
#238=CALENDAR_DATE(2022,4,7);
#239=LOCAL_TIME(13,47,2.,#240);
#240=COORDINATED_UNIVERSAL_TIME_OFFSET(0,0,.BEHIND.);
#241=AXIS2_PLACEMENT_3D('placement',#322,#263,#264);
#242=AXIS2_PLACEMENT_3D('',#323,#265,#266);
#243=AXIS2_PLACEMENT_3D('',#336,#271,#272);
#244=AXIS2_PLACEMENT_3D('',#338,#273,#274);
#245=AXIS2_PLACEMENT_3D('',#342,#277,#278);
#246=AXIS2_PLACEMENT_3D('',#352,#282,#283);
#247=AXIS2_PLACEMENT_3D('',#354,#285,#286);
#248=AXIS2_PLACEMENT_3D('',#356,#287,#288);
#249=AXIS2_PLACEMENT_3D('',#358,#289,#290);
#250=AXIS2_PLACEMENT_3D('',#359,#291,#292);
#251=AXIS2_PLACEMENT_3D('',#360,#293,#294);
#252=AXIS2_PLACEMENT_3D('',#361,#295,#296);
#253=AXIS2_PLACEMENT_3D('',#363,#297,#298);
#254=AXIS2_PLACEMENT_3D('',#364,#299,#300);
#255=AXIS2_PLACEMENT_3D('',#365,#301,#302);
#256=AXIS2_PLACEMENT_3D('',#408,#304,#305);
#257=AXIS2_PLACEMENT_3D('',#445,#307,#308);
#258=AXIS2_PLACEMENT_3D('',#448,#309,#310);
#259=AXIS2_PLACEMENT_3D('',#449,#311,#312);
#260=AXIS2_PLACEMENT_3D('',#452,#314,#315);
#261=AXIS2_PLACEMENT_3D('',#453,#316,#317);
#262=AXIS2_PLACEMENT_3D('',#456,#320,#321);
#263=DIRECTION('axis',(0.,0.,1.));
#264=DIRECTION('refdir',(1.,0.,0.));
#265=DIRECTION('center_axis',(1.,0.,-1.94289029309402E-16));
#266=DIRECTION('ref_axis',(1.94289029309402E-16,0.,1.));
#267=DIRECTION('',(0.,1.,0.));
#268=DIRECTION('',(1.94289029309402E-16,0.,1.));
#269=DIRECTION('',(0.,-1.,0.));
#270=DIRECTION('',(-1.94289029309402E-16,0.,-1.));
#271=DIRECTION('center_axis',(0.,-1.,0.));
#272=DIRECTION('ref_axis',(0.,0.,-1.));
#273=DIRECTION('center_axis',(0.,-1.,0.));
#274=DIRECTION('ref_axis',(0.,0.,-1.));
#275=DIRECTION('',(1.94289029309402E-16,0.,-1.));
#276=DIRECTION('',(1.,0.,0.));
#277=DIRECTION('center_axis',(-1.,0.,-1.94289029309402E-16));
#278=DIRECTION('ref_axis',(1.94289029309402E-16,0.,-1.));
#279=DIRECTION('',(0.,-1.,0.));
#280=DIRECTION('',(-1.94289029309402E-16,0.,1.));
#281=DIRECTION('',(0.,-1.,0.));
#282=DIRECTION('center_axis',(0.,0.,-1.));
#283=DIRECTION('ref_axis',(1.,0.,0.));
#284=DIRECTION('',(-1.,0.,0.));
#285=DIRECTION('center_axis',(0.,0.,-1.));
#286=DIRECTION('ref_axis',(-1.,0.,0.));
#287=DIRECTION('center_axis',(0.,0.,1.));
#288=DIRECTION('ref_axis',(1.,0.,0.));
#289=DIRECTION('center_axis',(0.,0.,1.));
#290=DIRECTION('ref_axis',(1.,0.,0.));
#291=DIRECTION('center_axis',(0.,1.,0.));
#292=DIRECTION('ref_axis',(0.,0.,1.));
#293=DIRECTION('center_axis',(0.,1.,0.));
#294=DIRECTION('ref_axis',(0.,0.,1.));
#295=DIRECTION('center_axis',(0.,-1.,0.));
#296=DIRECTION('ref_axis',(1.22464679914735E-16,0.,1.));
#297=DIRECTION('center_axis',(0.,-1.,0.));
#298=DIRECTION('ref_axis',(0.,0.,1.));
#299=DIRECTION('center_axis',(0.,-1.,0.));
#300=DIRECTION('ref_axis',(0.,0.,1.));
#301=DIRECTION('center_axis',(0.,0.,1.));
#302=DIRECTION('ref_axis',(1.,0.,0.));
#303=DIRECTION('',(0.,0.,1.));
#304=DIRECTION('center_axis',(0.,0.,1.));
#305=DIRECTION('ref_axis',(1.,0.,0.));
#306=DIRECTION('',(0.,0.,1.));
#307=DIRECTION('center_axis',(0.,1.,0.));
#308=DIRECTION('ref_axis',(0.,0.,1.));
#309=DIRECTION('center_axis',(0.,1.,0.));
#310=DIRECTION('ref_axis',(0.,0.,1.));
#311=DIRECTION('center_axis',(0.,1.,0.));
#312=DIRECTION('ref_axis',(0.,0.,1.));
#313=DIRECTION('',(8.65956056235493E-17,-0.707106781186548,0.707106781186547));
#314=DIRECTION('center_axis',(0.,-1.,0.));
#315=DIRECTION('ref_axis',(0.,0.,1.));
#316=DIRECTION('center_axis',(0.,-1.,0.));
#317=DIRECTION('ref_axis',(0.,0.,-1.));
#318=DIRECTION('',(0.,1.,0.));
#319=DIRECTION('',(0.,1.,0.));
#320=DIRECTION('center_axis',(0.,1.,0.));
#321=DIRECTION('ref_axis',(0.,0.,1.));
#322=CARTESIAN_POINT('',(0.,0.,0.));
#323=CARTESIAN_POINT('Origin',(4.,16.,-20.));
#324=CARTESIAN_POINT('',(4.,15.5,-9.16515138991168));
#325=CARTESIAN_POINT('',(4.,16.,-8.61684396980704));
#326=CARTESIAN_POINT('Ctrl Pts',(4.,15.5000000000001,-9.16515138991156));
#327=CARTESIAN_POINT('Ctrl Pts',(4.,15.7577087442806,-8.88396809755027));
#328=CARTESIAN_POINT('Ctrl Pts',(4.,16.,-8.61684396980703));
#329=CARTESIAN_POINT('',(4.,14.,-9.16515138991168));
#330=CARTESIAN_POINT('',(4.,16.,-9.16515138991168));
#331=CARTESIAN_POINT('',(4.,14.,-20.));
#332=CARTESIAN_POINT('',(4.,14.,0.));
#333=CARTESIAN_POINT('',(4.,16.,-20.));
#334=CARTESIAN_POINT('',(4.,16.,-20.));
#335=CARTESIAN_POINT('',(4.,16.,0.));
#336=CARTESIAN_POINT('Origin',(0.,14.,-10.));
#337=CARTESIAN_POINT('',(-4.,14.,-9.16515138991168));
#338=CARTESIAN_POINT('Origin',(0.,14.,0.));
#339=CARTESIAN_POINT('',(-4.,14.,-20.));
#340=CARTESIAN_POINT('',(-4.,14.,-20.));
#341=CARTESIAN_POINT('',(4.,14.,-20.));
#342=CARTESIAN_POINT('Origin',(-4.,16.,0.));
#343=CARTESIAN_POINT('',(-4.,15.5,-9.16515138991168));
#344=CARTESIAN_POINT('',(-4.,16.,-9.16515138991168));
#345=CARTESIAN_POINT('',(-4.,16.,-8.61684396980704));
#346=CARTESIAN_POINT('Ctrl Pts',(-4.,16.,-8.61684396980703));
#347=CARTESIAN_POINT('Ctrl Pts',(-4.,15.7577087442806,-8.88396809755026));
#348=CARTESIAN_POINT('Ctrl Pts',(-4.,15.5000000000001,-9.16515138991156));
#349=CARTESIAN_POINT('',(-4.,16.,-20.));
#350=CARTESIAN_POINT('',(-4.,16.,-20.));
#351=CARTESIAN_POINT('',(-4.,16.,-20.));
#352=CARTESIAN_POINT('Origin',(-4.,16.,-20.));
#353=CARTESIAN_POINT('',(4.,16.,-20.));
#354=CARTESIAN_POINT('Origin',(4.25,7.99999999999999,0.));
#355=CARTESIAN_POINT('',(-6.75,7.99999999999999,0.));
#356=CARTESIAN_POINT('Origin',(-8.67361737988404E-16,7.99999999999999,0.));
#357=CARTESIAN_POINT('',(-4.25,7.99999999999999,0.));
#358=CARTESIAN_POINT('Origin',(-8.67361737988404E-16,7.99999999999999,0.));
#359=CARTESIAN_POINT('Origin',(0.,16.,0.));
#360=CARTESIAN_POINT('Origin',(0.,16.,0.));
#361=CARTESIAN_POINT('Origin',(0.,16.,0.));
#362=CARTESIAN_POINT('',(-1.22464679914735E-15,15.5,10.));
#363=CARTESIAN_POINT('Origin',(0.,15.5,0.));
#364=CARTESIAN_POINT('Origin',(0.,15.5,0.));
#365=CARTESIAN_POINT('Origin',(-8.67361737988404E-16,7.99999999999999,10.));
#366=CARTESIAN_POINT('',(-6.75,7.99999999999999,7.37817728168685));
#367=CARTESIAN_POINT('',(-6.75,7.99999999999999,10.));
#368=CARTESIAN_POINT('',(1.47879084762197E-15,1.24999999999999,10.));
#369=CARTESIAN_POINT('Ctrl Pts',(-6.75,7.99999999999999,7.37817728168685));
#370=CARTESIAN_POINT('Ctrl Pts',(-6.75,7.11076517983233,7.37817728168685));
#371=CARTESIAN_POINT('Ctrl Pts',(-6.56624386659103,6.19856013255058,7.55521317291633));
#372=CARTESIAN_POINT('Ctrl Pts',(-5.87144704377324,4.55226423517239,8.10696562886235));
#373=CARTESIAN_POINT('Ctrl Pts',(-5.35995037479988,3.81400882878148,8.46859642987921));
#374=CARTESIAN_POINT('Ctrl Pts',(-4.19288489027763,2.64694334425923,9.10249915184544));
#375=CARTESIAN_POINT('Ctrl Pts',(-3.45318442139334,2.13092672535048,9.42401581503822));
#376=CARTESIAN_POINT('Ctrl Pts',(-1.79692103254922,1.43177482512734,9.87459534541796));
#377=CARTESIAN_POINT('Ctrl Pts',(-0.878791297072277,1.24999999999999,10.));
#378=CARTESIAN_POINT('Ctrl Pts',(-1.94289029309402E-15,1.24999999999999,
10.));
#379=CARTESIAN_POINT('',(2.20343868895191E-16,14.75,10.));
#380=CARTESIAN_POINT('Ctrl Pts',(-2.22044604925031E-15,1.24999999999999,
10.));
#381=CARTESIAN_POINT('Ctrl Pts',(0.878791297072271,1.24999999999999,10.));
#382=CARTESIAN_POINT('Ctrl Pts',(1.79692103254921,1.43177482512734,9.87459534541796));
#383=CARTESIAN_POINT('Ctrl Pts',(3.45318442139333,2.13092672535048,9.42401581503822));
#384=CARTESIAN_POINT('Ctrl Pts',(4.19288489027763,2.64694334425923,9.10249915184545));
#385=CARTESIAN_POINT('Ctrl Pts',(5.35995037479988,3.81400882878148,8.46859642987921));
#386=CARTESIAN_POINT('Ctrl Pts',(5.87144704377324,4.55226423517239,8.10696562886235));
#387=CARTESIAN_POINT('Ctrl Pts',(6.56624386659102,6.19856013255058,7.55521317291633));
#388=CARTESIAN_POINT('Ctrl Pts',(6.75,7.11076517983233,7.37817728168685));
#389=CARTESIAN_POINT('Ctrl Pts',(6.75,8.88923482016765,7.37817728168685));
#390=CARTESIAN_POINT('Ctrl Pts',(6.56624386659103,9.8014398674494,7.55521317291633));
#391=CARTESIAN_POINT('Ctrl Pts',(5.87144704377324,11.4477357648276,8.10696562886235));
#392=CARTESIAN_POINT('Ctrl Pts',(5.35995037479988,12.1859911712185,8.46859642987921));
#393=CARTESIAN_POINT('Ctrl Pts',(4.19288489027763,13.3530566557408,9.10249915184545));
#394=CARTESIAN_POINT('Ctrl Pts',(3.45318442139334,13.8690732746495,9.42401581503822));
#395=CARTESIAN_POINT('Ctrl Pts',(1.79692103254921,14.5682251748726,9.87459534541796));
#396=CARTESIAN_POINT('Ctrl Pts',(0.878791297072277,14.75,10.));
#397=CARTESIAN_POINT('Ctrl Pts',(1.66533453693773E-15,14.75,10.));
#398=CARTESIAN_POINT('Ctrl Pts',(8.32667268468867E-16,14.75,10.));
#399=CARTESIAN_POINT('Ctrl Pts',(-0.878791297072273,14.75,10.));
#400=CARTESIAN_POINT('Ctrl Pts',(-1.79692103254921,14.5682251748726,9.87459534541796));
#401=CARTESIAN_POINT('Ctrl Pts',(-3.45318442139333,13.8690732746495,9.42401581503822));
#402=CARTESIAN_POINT('Ctrl Pts',(-4.19288489027762,13.3530566557408,9.10249915184545));
#403=CARTESIAN_POINT('Ctrl Pts',(-5.35995037479988,12.1859911712185,8.46859642987921));
#404=CARTESIAN_POINT('Ctrl Pts',(-5.87144704377324,11.4477357648276,8.10696562886236));
#405=CARTESIAN_POINT('Ctrl Pts',(-6.56624386659102,9.8014398674494,7.55521317291633));
#406=CARTESIAN_POINT('Ctrl Pts',(-6.75,8.88923482016765,7.37817728168685));
#407=CARTESIAN_POINT('Ctrl Pts',(-6.75,7.99999999999999,7.37817728168685));
#408=CARTESIAN_POINT('Origin',(-8.67361737988404E-16,7.99999999999999,10.));
#409=CARTESIAN_POINT('',(-4.25,7.99999999999999,-9.05193349511584));
#410=CARTESIAN_POINT('Ctrl Pts',(-4.25,7.99999999999999,-9.05193349511584));
#411=CARTESIAN_POINT('Ctrl Pts',(-4.25,8.54156511038416,-9.05193349511584));
#412=CARTESIAN_POINT('Ctrl Pts',(-4.14035230933463,9.11364487415373,-9.10568828167864));
#413=CARTESIAN_POINT('Ctrl Pts',(-3.70470820222478,10.1582086632152,-9.29145893113828));
#414=CARTESIAN_POINT('Ctrl Pts',(-3.37898345761814,10.6314241824675,-9.41998154692791));
#415=CARTESIAN_POINT('Ctrl Pts',(-2.6319167739654,11.3784908661202,-9.65537110178306));
#416=CARTESIAN_POINT('Ctrl Pts',(-2.15851918379264,11.7045866027547,-9.77862281028646));
#417=CARTESIAN_POINT('Ctrl Pts',(-1.11322837495027,12.1405181073087,-9.95195416839968));
#418=CARTESIAN_POINT('Ctrl Pts',(-0.54085140010647,12.25,-10.));
#419=CARTESIAN_POINT('Ctrl Pts',(0.540851400106471,12.25,-10.));
#420=CARTESIAN_POINT('Ctrl Pts',(1.11322837495027,12.1405181073087,-9.95195416839968));
#421=CARTESIAN_POINT('Ctrl Pts',(2.15851918379264,11.7045866027547,-9.77862281028646));
#422=CARTESIAN_POINT('Ctrl Pts',(2.6319167739654,11.3784908661202,-9.65537110178306));
#423=CARTESIAN_POINT('Ctrl Pts',(3.37898345761815,10.6314241824675,-9.41998154692791));
#424=CARTESIAN_POINT('Ctrl Pts',(3.70470820222478,10.1582086632152,-9.29145893113828));
#425=CARTESIAN_POINT('Ctrl Pts',(4.14035230933463,9.11364487415372,-9.10568828167865));
#426=CARTESIAN_POINT('Ctrl Pts',(4.25,8.54156511038416,-9.05193349511584));
#427=CARTESIAN_POINT('Ctrl Pts',(4.25,7.45843488961583,-9.05193349511584));
#428=CARTESIAN_POINT('Ctrl Pts',(4.14035230933463,6.88635512584626,-9.10568828167865));
#429=CARTESIAN_POINT('Ctrl Pts',(3.70470820222478,5.84179133678479,-9.29145893113828));
#430=CARTESIAN_POINT('Ctrl Pts',(3.37898345761814,5.36857581753248,-9.41998154692791));
#431=CARTESIAN_POINT('Ctrl Pts',(2.6319167739654,4.62150913387974,-9.65537110178306));
#432=CARTESIAN_POINT('Ctrl Pts',(2.15851918379264,4.29541339724527,-9.77862281028646));
#433=CARTESIAN_POINT('Ctrl Pts',(1.11322837495027,3.85948189269123,-9.95195416839968));
#434=CARTESIAN_POINT('Ctrl Pts',(0.540851400106468,3.74999999999999,-10.));
#435=CARTESIAN_POINT('Ctrl Pts',(-0.540851400106472,3.74999999999999,-10.));
#436=CARTESIAN_POINT('Ctrl Pts',(-1.11322837495027,3.85948189269124,-9.95195416839968));
#437=CARTESIAN_POINT('Ctrl Pts',(-2.15851918379265,4.29541339724527,-9.77862281028646));
#438=CARTESIAN_POINT('Ctrl Pts',(-2.6319167739654,4.62150913387974,-9.65537110178306));
#439=CARTESIAN_POINT('Ctrl Pts',(-3.37898345761815,5.36857581753248,-9.41998154692791));
#440=CARTESIAN_POINT('Ctrl Pts',(-3.70470820222478,5.84179133678479,-9.29145893113828));
#441=CARTESIAN_POINT('Ctrl Pts',(-4.14035230933463,6.88635512584626,-9.10568828167864));
#442=CARTESIAN_POINT('Ctrl Pts',(-4.25,7.45843488961583,-9.05193349511584));
#443=CARTESIAN_POINT('Ctrl Pts',(-4.25,7.99999999999999,-9.05193349511584));
#444=CARTESIAN_POINT('',(-4.25,7.99999999999999,10.));
#445=CARTESIAN_POINT('Origin',(0.,0.500000000000004,0.));
#446=CARTESIAN_POINT('',(1.22464679914735E-15,0.500000000000004,10.));
#447=CARTESIAN_POINT('',(-1.22464679914735E-15,0.500000000000004,-10.));
#448=CARTESIAN_POINT('Origin',(0.,0.500000000000004,0.));
#449=CARTESIAN_POINT('Origin',(0.,0.500000000000004,0.));
#450=CARTESIAN_POINT('',(-1.16341445918999E-15,5.55111512312578E-16,-9.5));
#451=CARTESIAN_POINT('',(-1.22464679914735E-15,0.500000000000004,-10.));
#452=CARTESIAN_POINT('Origin',(0.,0.,0.));
#453=CARTESIAN_POINT('Origin',(0.,16.,0.));
#454=CARTESIAN_POINT('',(-1.22464679914735E-15,16.,10.));
#455=CARTESIAN_POINT('',(-1.22464679914735E-15,16.,10.));
#456=CARTESIAN_POINT('Origin',(0.,0.,0.));
#457=UNCERTAINTY_MEASURE_WITH_UNIT(LENGTH_MEASURE(0.01),#461,
'DISTANCE_ACCURACY_VALUE',
'Maximum model space distance between geometric entities at asserted c
onnectivities');
#458=UNCERTAINTY_MEASURE_WITH_UNIT(LENGTH_MEASURE(0.01),#461,
'DISTANCE_ACCURACY_VALUE',
'Maximum model space distance between geometric entities at asserted c
onnectivities');
#459=(
GEOMETRIC_REPRESENTATION_CONTEXT(3)
GLOBAL_UNCERTAINTY_ASSIGNED_CONTEXT((#457))
GLOBAL_UNIT_ASSIGNED_CONTEXT((#461,#463,#464))
REPRESENTATION_CONTEXT('','3D')
);
#460=(
GEOMETRIC_REPRESENTATION_CONTEXT(3)
GLOBAL_UNCERTAINTY_ASSIGNED_CONTEXT((#458))
GLOBAL_UNIT_ASSIGNED_CONTEXT((#461,#463,#464))
REPRESENTATION_CONTEXT('','3D')
);
#461=(
LENGTH_UNIT()
NAMED_UNIT(*)
SI_UNIT(.MILLI.,.METRE.)
);
#462=(
LENGTH_UNIT()
NAMED_UNIT(*)
SI_UNIT(.CENTI.,.METRE.)
);
#463=(
NAMED_UNIT(*)
PLANE_ANGLE_UNIT()
SI_UNIT($,.RADIAN.)
);
#464=(
NAMED_UNIT(*)
SI_UNIT($,.STERADIAN.)
SOLID_ANGLE_UNIT()
);
#465=SHAPE_DEFINITION_REPRESENTATION(#466,#467);
#466=PRODUCT_DEFINITION_SHAPE('',$,#469);
#467=SHAPE_REPRESENTATION('',(#241),#459);
#468=PRODUCT_DEFINITION_CONTEXT('part definition',#473,'design');
#469=PRODUCT_DEFINITION('PCB45-08','PCB45-08',#470,#468);
#470=PRODUCT_DEFINITION_FORMATION('TUTTO',$,#475);
#471=PRODUCT_RELATED_PRODUCT_CATEGORY('PCB45-08','PCB45-08',(#475));
#472=APPLICATION_PROTOCOL_DEFINITION('international standard',
'automotive_design',2009,#473);
#473=APPLICATION_CONTEXT(
'Core Data for Automotive Mechanical Design Process');
#474=PRODUCT_CONTEXT('part definition',#473,'mechanical');
#475=PRODUCT('PCB45-08','PCB45-08','STEP AP203',(#474));
#476=PRESENTATION_STYLE_ASSIGNMENT((#477));
#477=SURFACE_STYLE_USAGE(.BOTH.,#480);
#478=SURFACE_STYLE_RENDERING_WITH_PROPERTIES($,#484,(#479));
#479=SURFACE_STYLE_TRANSPARENT(0.);
#480=SURFACE_SIDE_STYLE('',(#481,#478));
#481=SURFACE_STYLE_FILL_AREA(#482);
#482=FILL_AREA_STYLE('',(#483));
#483=FILL_AREA_STYLE_COLOUR('',#484);
#484=COLOUR_RGB('',0.749019607843137,0.749019607843137,0.749019607843137);
ENDSEC;
END-ISO-10303-21;
