ISO-10303-21;
HEADER;
/* Generated by software containing ST-Developer
 * from STEP Tools, Inc. (www.steptools.com) 
 */

FILE_DESCRIPTION(
/* description */ ('Connessione laterale serie 30'),
/* implementation_level */ '2;1');

FILE_NAME(
/* name */ 'C:\\Users\\Stefan.Nesic\\Desktop\\01010STEP\\PCB30-08.stp',

/* time_stamp */ '2022-06-18T10:34:21+02:00',
/* author */ ('USER'),
/* organization */ ('Microsoft'),
/* preprocessor_version */ 'ST-DEVELOPER v18.1',
/* originating_system */ 'Autodesk Inventor 2021',
/* authorisation */ '');

FILE_SCHEMA (('AUTOMOTIVE_DESIGN { 1 0 10303 214 3 1 1 }'));
ENDSEC;

DATA;
#10=MECHANICAL_DESIGN_GEOMETRIC_PRESENTATION_REPRESENTATION('',(#13),#519);
#11=SHAPE_REPRESENTATION_RELATIONSHIP('SRR','None',#526,#12);
#12=ADVANCED_BREP_SHAPE_REPRESENTATION('',(#14),#518);
#13=STYLED_ITEM('',(#535),#14);
#14=MANIFOLD_SOLID_BREP('Solido1',#261);
#15=PLANE('',#293);
#16=PLANE('',#294);
#17=PLANE('',#295);
#18=PLANE('',#296);
#19=PLANE('',#297);
#20=PLANE('',#298);
#21=PLANE('',#299);
#22=PLANE('',#300);
#23=PLANE('',#301);
#24=PLANE('',#302);
#25=PLANE('',#303);
#26=FACE_BOUND('',#45,.T.);
#27=FACE_BOUND('',#49,.T.);
#28=FACE_OUTER_BOUND('',#42,.T.);
#29=FACE_OUTER_BOUND('',#43,.T.);
#30=FACE_OUTER_BOUND('',#44,.T.);
#31=FACE_OUTER_BOUND('',#46,.T.);
#32=FACE_OUTER_BOUND('',#47,.T.);
#33=FACE_OUTER_BOUND('',#48,.T.);
#34=FACE_OUTER_BOUND('',#50,.T.);
#35=FACE_OUTER_BOUND('',#51,.T.);
#36=FACE_OUTER_BOUND('',#52,.T.);
#37=FACE_OUTER_BOUND('',#53,.T.);
#38=FACE_OUTER_BOUND('',#54,.T.);
#39=FACE_OUTER_BOUND('',#55,.T.);
#40=FACE_OUTER_BOUND('',#56,.T.);
#41=FACE_OUTER_BOUND('',#57,.T.);
#42=EDGE_LOOP('',(#174,#175,#176,#177,#178));
#43=EDGE_LOOP('',(#179,#180,#181,#182));
#44=EDGE_LOOP('',(#183,#184,#185,#186,#187,#188,#189,#190,#191,#192,#193,
#194,#195,#196,#197));
#45=EDGE_LOOP('',(#198));
#46=EDGE_LOOP('',(#199,#200,#201,#202,#203));
#47=EDGE_LOOP('',(#204));
#48=EDGE_LOOP('',(#205));
#49=EDGE_LOOP('',(#206));
#50=EDGE_LOOP('',(#207,#208,#209,#210));
#51=EDGE_LOOP('',(#211,#212,#213,#214));
#52=EDGE_LOOP('',(#215,#216,#217,#218,#219,#220,#221,#222));
#53=EDGE_LOOP('',(#223,#224,#225,#226));
#54=EDGE_LOOP('',(#227,#228,#229,#230,#231));
#55=EDGE_LOOP('',(#232,#233,#234,#235));
#56=EDGE_LOOP('',(#236,#237,#238,#239));
#57=EDGE_LOOP('',(#240,#241,#242,#243));
#58=CIRCLE('',#282,2.5);
#59=CIRCLE('',#284,4.5);
#60=CIRCLE('',#286,6.5);
#61=CIRCLE('',#287,6.5);
#62=CIRCLE('',#288,6.5);
#63=CIRCLE('',#289,6.5);
#64=CIRCLE('',#290,6.5);
#65=CIRCLE('',#291,6.5);
#66=CIRCLE('',#292,6.5);
#67=LINE('',#398,#90);
#68=LINE('',#423,#91);
#69=LINE('',#462,#92);
#70=LINE('',#466,#93);
#71=LINE('',#470,#94);
#72=LINE('',#475,#95);
#73=LINE('',#479,#96);
#74=LINE('',#483,#97);
#75=LINE('',#485,#98);
#76=LINE('',#486,#99);
#77=LINE('',#491,#100);
#78=LINE('',#493,#101);
#79=LINE('',#494,#102);
#80=LINE('',#497,#103);
#81=LINE('',#498,#104);
#82=LINE('',#500,#105);
#83=LINE('',#502,#106);
#84=LINE('',#504,#107);
#85=LINE('',#506,#108);
#86=LINE('',#507,#109);
#87=LINE('',#510,#110);
#88=LINE('',#512,#111);
#89=LINE('',#514,#112);
#90=VECTOR('',#308,2.5);
#91=VECTOR('',#315,4.5);
#92=VECTOR('',#320,6.5);
#93=VECTOR('',#323,1000.);
#94=VECTOR('',#326,1000.);
#95=VECTOR('',#331,1000.);
#96=VECTOR('',#334,1000.);
#97=VECTOR('',#339,1000.);
#98=VECTOR('',#340,1000.);
#99=VECTOR('',#341,1000.);
#100=VECTOR('',#348,1000.);
#101=VECTOR('',#349,1000.);
#102=VECTOR('',#350,1000.);
#103=VECTOR('',#353,1000.);
#104=VECTOR('',#354,1000.);
#105=VECTOR('',#357,1000.);
#106=VECTOR('',#358,1000.);
#107=VECTOR('',#359,1000.);
#108=VECTOR('',#360,1000.);
#109=VECTOR('',#361,1000.);
#110=VECTOR('',#366,1000.);
#111=VECTOR('',#369,1000.);
#112=VECTOR('',#372,1000.);
#113=B_SPLINE_CURVE_WITH_KNOTS('',3,(#379,#380,#381,#382,#383,#384,#385,
#386,#387,#388,#389,#390,#391,#392,#393,#394,#395,#396),.UNSPECIFIED.,.F.,
 .F.,(4,2,2,2,2,2,2,2,4),(0.380982935917261,0.476187989570543,0.571393043223826,
0.666679457529174,0.761965871834523,0.857252286139871,0.952538700445219,
1.0477437540985,1.14294880775178),.UNSPECIFIED.);
#114=B_SPLINE_CURVE_WITH_KNOTS('',3,(#400,#401,#402,#403,#404,#405,#406,
#407,#408,#409,#410,#411,#412,#413,#414,#415,#416,#417,#418),
 .UNSPECIFIED.,.F.,.F.,(4,2,2,2,3,2,2,2,4),(-0.380982935917261,-0.285777882263979,
-0.190572828610697,-0.0952864143053484,0.,0.0952864143053485,0.190572828610697,
0.285777882263979,0.380982935917262),.UNSPECIFIED.);
#115=B_SPLINE_CURVE_WITH_KNOTS('',3,(#424,#425,#426,#427,#428,#429,#430,
#431,#432,#433,#434,#435,#436,#437,#438,#439,#440,#441,#442,#443,#444,#445,
#446,#447,#448,#449,#450,#451,#452,#453,#454,#455,#456,#457),
 .UNSPECIFIED.,.T.,.F.,(4,2,2,2,2,2,2,2,2,2,2,2,2,2,2,2,4),(-2.83729580100079,
-2.65876476966343,-2.48023373832606,-2.30410279453833,-2.12797185075059,
-1.95184090696285,-1.77570996317512,-1.59717893183776,-1.41864790050039,
-1.24011686916303,-1.06158583782567,-0.885454894037933,-0.709323950250197,
-0.533193006462461,-0.357062062674725,-0.178531031337363,0.),
 .UNSPECIFIED.);
#116=VERTEX_POINT('',#377);
#117=VERTEX_POINT('',#378);
#118=VERTEX_POINT('',#397);
#119=VERTEX_POINT('',#420);
#120=VERTEX_POINT('',#422);
#121=VERTEX_POINT('',#459);
#122=VERTEX_POINT('',#461);
#123=VERTEX_POINT('',#463);
#124=VERTEX_POINT('',#465);
#125=VERTEX_POINT('',#467);
#126=VERTEX_POINT('',#469);
#127=VERTEX_POINT('',#472);
#128=VERTEX_POINT('',#474);
#129=VERTEX_POINT('',#476);
#130=VERTEX_POINT('',#478);
#131=VERTEX_POINT('',#482);
#132=VERTEX_POINT('',#484);
#133=VERTEX_POINT('',#490);
#134=VERTEX_POINT('',#492);
#135=VERTEX_POINT('',#496);
#136=VERTEX_POINT('',#501);
#137=VERTEX_POINT('',#503);
#138=VERTEX_POINT('',#505);
#139=EDGE_CURVE('',#116,#117,#113,.T.);
#140=EDGE_CURVE('',#116,#118,#67,.T.);
#141=EDGE_CURVE('',#118,#118,#58,.T.);
#142=EDGE_CURVE('',#117,#116,#114,.T.);
#143=EDGE_CURVE('',#119,#119,#59,.T.);
#144=EDGE_CURVE('',#119,#120,#68,.T.);
#145=EDGE_CURVE('',#120,#120,#115,.T.);
#146=EDGE_CURVE('',#121,#121,#60,.T.);
#147=EDGE_CURVE('',#121,#122,#69,.T.);
#148=EDGE_CURVE('',#123,#122,#61,.T.);
#149=EDGE_CURVE('',#123,#124,#70,.T.);
#150=EDGE_CURVE('',#124,#125,#62,.T.);
#151=EDGE_CURVE('',#125,#126,#71,.T.);
#152=EDGE_CURVE('',#126,#117,#63,.T.);
#153=EDGE_CURVE('',#117,#127,#64,.T.);
#154=EDGE_CURVE('',#127,#128,#72,.T.);
#155=EDGE_CURVE('',#128,#129,#65,.T.);
#156=EDGE_CURVE('',#129,#130,#73,.T.);
#157=EDGE_CURVE('',#122,#130,#66,.T.);
#158=EDGE_CURVE('',#130,#131,#74,.T.);
#159=EDGE_CURVE('',#131,#132,#75,.T.);
#160=EDGE_CURVE('',#123,#132,#76,.T.);
#161=EDGE_CURVE('',#128,#133,#77,.T.);
#162=EDGE_CURVE('',#133,#134,#78,.T.);
#163=EDGE_CURVE('',#129,#134,#79,.T.);
#164=EDGE_CURVE('',#127,#135,#80,.T.);
#165=EDGE_CURVE('',#135,#133,#81,.T.);
#166=EDGE_CURVE('',#134,#131,#82,.T.);
#167=EDGE_CURVE('',#136,#135,#83,.T.);
#168=EDGE_CURVE('',#137,#136,#84,.T.);
#169=EDGE_CURVE('',#138,#137,#85,.T.);
#170=EDGE_CURVE('',#132,#138,#86,.T.);
#171=EDGE_CURVE('',#126,#136,#87,.T.);
#172=EDGE_CURVE('',#125,#137,#88,.T.);
#173=EDGE_CURVE('',#124,#138,#89,.T.);
#174=ORIENTED_EDGE('',*,*,#139,.F.);
#175=ORIENTED_EDGE('',*,*,#140,.T.);
#176=ORIENTED_EDGE('',*,*,#141,.T.);
#177=ORIENTED_EDGE('',*,*,#140,.F.);
#178=ORIENTED_EDGE('',*,*,#142,.F.);
#179=ORIENTED_EDGE('',*,*,#143,.F.);
#180=ORIENTED_EDGE('',*,*,#144,.T.);
#181=ORIENTED_EDGE('',*,*,#145,.F.);
#182=ORIENTED_EDGE('',*,*,#144,.F.);
#183=ORIENTED_EDGE('',*,*,#146,.T.);
#184=ORIENTED_EDGE('',*,*,#147,.T.);
#185=ORIENTED_EDGE('',*,*,#148,.F.);
#186=ORIENTED_EDGE('',*,*,#149,.T.);
#187=ORIENTED_EDGE('',*,*,#150,.T.);
#188=ORIENTED_EDGE('',*,*,#151,.T.);
#189=ORIENTED_EDGE('',*,*,#152,.T.);
#190=ORIENTED_EDGE('',*,*,#142,.T.);
#191=ORIENTED_EDGE('',*,*,#139,.T.);
#192=ORIENTED_EDGE('',*,*,#153,.T.);
#193=ORIENTED_EDGE('',*,*,#154,.T.);
#194=ORIENTED_EDGE('',*,*,#155,.T.);
#195=ORIENTED_EDGE('',*,*,#156,.T.);
#196=ORIENTED_EDGE('',*,*,#157,.F.);
#197=ORIENTED_EDGE('',*,*,#147,.F.);
#198=ORIENTED_EDGE('',*,*,#145,.T.);
#199=ORIENTED_EDGE('',*,*,#148,.T.);
#200=ORIENTED_EDGE('',*,*,#157,.T.);
#201=ORIENTED_EDGE('',*,*,#158,.T.);
#202=ORIENTED_EDGE('',*,*,#159,.T.);
#203=ORIENTED_EDGE('',*,*,#160,.F.);
#204=ORIENTED_EDGE('',*,*,#146,.F.);
#205=ORIENTED_EDGE('',*,*,#143,.T.);
#206=ORIENTED_EDGE('',*,*,#141,.F.);
#207=ORIENTED_EDGE('',*,*,#155,.F.);
#208=ORIENTED_EDGE('',*,*,#161,.T.);
#209=ORIENTED_EDGE('',*,*,#162,.T.);
#210=ORIENTED_EDGE('',*,*,#163,.F.);
#211=ORIENTED_EDGE('',*,*,#154,.F.);
#212=ORIENTED_EDGE('',*,*,#164,.T.);
#213=ORIENTED_EDGE('',*,*,#165,.T.);
#214=ORIENTED_EDGE('',*,*,#161,.F.);
#215=ORIENTED_EDGE('',*,*,#166,.F.);
#216=ORIENTED_EDGE('',*,*,#162,.F.);
#217=ORIENTED_EDGE('',*,*,#165,.F.);
#218=ORIENTED_EDGE('',*,*,#167,.F.);
#219=ORIENTED_EDGE('',*,*,#168,.F.);
#220=ORIENTED_EDGE('',*,*,#169,.F.);
#221=ORIENTED_EDGE('',*,*,#170,.F.);
#222=ORIENTED_EDGE('',*,*,#159,.F.);
#223=ORIENTED_EDGE('',*,*,#156,.F.);
#224=ORIENTED_EDGE('',*,*,#163,.T.);
#225=ORIENTED_EDGE('',*,*,#166,.T.);
#226=ORIENTED_EDGE('',*,*,#158,.F.);
#227=ORIENTED_EDGE('',*,*,#164,.F.);
#228=ORIENTED_EDGE('',*,*,#153,.F.);
#229=ORIENTED_EDGE('',*,*,#152,.F.);
#230=ORIENTED_EDGE('',*,*,#171,.T.);
#231=ORIENTED_EDGE('',*,*,#167,.T.);
#232=ORIENTED_EDGE('',*,*,#151,.F.);
#233=ORIENTED_EDGE('',*,*,#172,.T.);
#234=ORIENTED_EDGE('',*,*,#168,.T.);
#235=ORIENTED_EDGE('',*,*,#171,.F.);
#236=ORIENTED_EDGE('',*,*,#150,.F.);
#237=ORIENTED_EDGE('',*,*,#173,.T.);
#238=ORIENTED_EDGE('',*,*,#169,.T.);
#239=ORIENTED_EDGE('',*,*,#172,.F.);
#240=ORIENTED_EDGE('',*,*,#149,.F.);
#241=ORIENTED_EDGE('',*,*,#160,.T.);
#242=ORIENTED_EDGE('',*,*,#170,.T.);
#243=ORIENTED_EDGE('',*,*,#173,.F.);
#244=CYLINDRICAL_SURFACE('',#281,2.5);
#245=CYLINDRICAL_SURFACE('',#283,4.5);
#246=CYLINDRICAL_SURFACE('',#285,6.5);
#247=ADVANCED_FACE('',(#28),#244,.F.);
#248=ADVANCED_FACE('',(#29),#245,.F.);
#249=ADVANCED_FACE('',(#30,#26),#246,.T.);
#250=ADVANCED_FACE('',(#31),#15,.T.);
#251=ADVANCED_FACE('',(#32),#16,.F.);
#252=ADVANCED_FACE('',(#33,#27),#17,.T.);
#253=ADVANCED_FACE('',(#34),#18,.F.);
#254=ADVANCED_FACE('',(#35),#19,.F.);
#255=ADVANCED_FACE('',(#36),#20,.T.);
#256=ADVANCED_FACE('',(#37),#21,.F.);
#257=ADVANCED_FACE('',(#38),#22,.F.);
#258=ADVANCED_FACE('',(#39),#23,.F.);
#259=ADVANCED_FACE('',(#40),#24,.F.);
#260=ADVANCED_FACE('',(#41),#25,.F.);
#261=CLOSED_SHELL('',(#247,#248,#249,#250,#251,#252,#253,#254,#255,#256,
#257,#258,#259,#260));
#262=DERIVED_UNIT_ELEMENT(#264,1.);
#263=DERIVED_UNIT_ELEMENT(#521,-3.);
#264=(
MASS_UNIT()
NAMED_UNIT(*)
SI_UNIT($,.GRAM.)
);
#265=DERIVED_UNIT((#262,#263));
#266=MEASURE_REPRESENTATION_ITEM('density measure',
POSITIVE_RATIO_MEASURE(7.85),#265);
#267=PROPERTY_DEFINITION_REPRESENTATION(#272,#269);
#268=PROPERTY_DEFINITION_REPRESENTATION(#273,#270);
#269=REPRESENTATION('material name',(#271),#518);
#270=REPRESENTATION('density',(#266),#518);
#271=DESCRIPTIVE_REPRESENTATION_ITEM('Acciaio','Acciaio');
#272=PROPERTY_DEFINITION('material property','material name',#528);
#273=PROPERTY_DEFINITION('material property','density of part',#528);
#274=DATE_TIME_ROLE('creation_date');
#275=APPLIED_DATE_AND_TIME_ASSIGNMENT(#276,#274,(#528));
#276=DATE_AND_TIME(#277,#278);
#277=CALENDAR_DATE(2014,25,6);
#278=LOCAL_TIME(0,0,0.,#279);
#279=COORDINATED_UNIVERSAL_TIME_OFFSET(0,0,.BEHIND.);
#280=AXIS2_PLACEMENT_3D('placement',#375,#304,#305);
#281=AXIS2_PLACEMENT_3D('',#376,#306,#307);
#282=AXIS2_PLACEMENT_3D('',#399,#309,#310);
#283=AXIS2_PLACEMENT_3D('',#419,#311,#312);
#284=AXIS2_PLACEMENT_3D('',#421,#313,#314);
#285=AXIS2_PLACEMENT_3D('',#458,#316,#317);
#286=AXIS2_PLACEMENT_3D('',#460,#318,#319);
#287=AXIS2_PLACEMENT_3D('',#464,#321,#322);
#288=AXIS2_PLACEMENT_3D('',#468,#324,#325);
#289=AXIS2_PLACEMENT_3D('',#471,#327,#328);
#290=AXIS2_PLACEMENT_3D('',#473,#329,#330);
#291=AXIS2_PLACEMENT_3D('',#477,#332,#333);
#292=AXIS2_PLACEMENT_3D('',#480,#335,#336);
#293=AXIS2_PLACEMENT_3D('',#481,#337,#338);
#294=AXIS2_PLACEMENT_3D('',#487,#342,#343);
#295=AXIS2_PLACEMENT_3D('',#488,#344,#345);
#296=AXIS2_PLACEMENT_3D('',#489,#346,#347);
#297=AXIS2_PLACEMENT_3D('',#495,#351,#352);
#298=AXIS2_PLACEMENT_3D('',#499,#355,#356);
#299=AXIS2_PLACEMENT_3D('',#508,#362,#363);
#300=AXIS2_PLACEMENT_3D('',#509,#364,#365);
#301=AXIS2_PLACEMENT_3D('',#511,#367,#368);
#302=AXIS2_PLACEMENT_3D('',#513,#370,#371);
#303=AXIS2_PLACEMENT_3D('',#515,#373,#374);
#304=DIRECTION('axis',(0.,0.,1.));
#305=DIRECTION('refdir',(1.,0.,0.));
#306=DIRECTION('center_axis',(0.,1.,0.));
#307=DIRECTION('ref_axis',(0.,0.,1.));
#308=DIRECTION('',(0.,1.,0.));
#309=DIRECTION('center_axis',(0.,1.,0.));
#310=DIRECTION('ref_axis',(0.,0.,1.));
#311=DIRECTION('center_axis',(0.,1.,0.));
#312=DIRECTION('ref_axis',(0.,0.,1.));
#313=DIRECTION('center_axis',(0.,1.,0.));
#314=DIRECTION('ref_axis',(0.,0.,1.));
#315=DIRECTION('',(0.,1.,0.));
#316=DIRECTION('center_axis',(0.,0.,-1.));
#317=DIRECTION('ref_axis',(-1.,0.,0.));
#318=DIRECTION('center_axis',(0.,0.,1.));
#319=DIRECTION('ref_axis',(1.,0.,0.));
#320=DIRECTION('',(0.,0.,1.));
#321=DIRECTION('center_axis',(0.,0.,1.));
#322=DIRECTION('ref_axis',(1.,0.,0.));
#323=DIRECTION('',(0.,0.,-1.));
#324=DIRECTION('center_axis',(0.,0.,-1.));
#325=DIRECTION('ref_axis',(1.,1.77635683940025E-15,0.));
#326=DIRECTION('',(0.,0.,-1.));
#327=DIRECTION('center_axis',(-2.16840434497101E-16,0.,-1.));
#328=DIRECTION('ref_axis',(1.,0.,-2.16840434497101E-16));
#329=DIRECTION('center_axis',(-2.16840434497101E-16,0.,-1.));
#330=DIRECTION('ref_axis',(1.,8.88178419700125E-16,-2.16840434497101E-16));
#331=DIRECTION('',(0.,0.,1.));
#332=DIRECTION('center_axis',(0.,0.,-1.));
#333=DIRECTION('ref_axis',(1.,0.,0.));
#334=DIRECTION('',(0.,0.,1.));
#335=DIRECTION('center_axis',(0.,0.,1.));
#336=DIRECTION('ref_axis',(1.,0.,0.));
#337=DIRECTION('center_axis',(0.,0.,1.));
#338=DIRECTION('ref_axis',(1.,0.,0.));
#339=DIRECTION('',(0.,-1.,0.));
#340=DIRECTION('',(1.,0.,0.));
#341=DIRECTION('',(0.,-1.,0.));
#342=DIRECTION('center_axis',(0.,0.,1.));
#343=DIRECTION('ref_axis',(1.,0.,0.));
#344=DIRECTION('center_axis',(0.,1.,0.));
#345=DIRECTION('ref_axis',(0.,0.,1.));
#346=DIRECTION('center_axis',(0.,0.,1.));
#347=DIRECTION('ref_axis',(1.,0.,0.));
#348=DIRECTION('',(0.,-1.,0.));
#349=DIRECTION('',(-1.,0.,0.));
#350=DIRECTION('',(0.,-1.,0.));
#351=DIRECTION('center_axis',(1.,0.,0.));
#352=DIRECTION('ref_axis',(0.,0.,-1.));
#353=DIRECTION('',(0.,-1.,0.));
#354=DIRECTION('',(0.,0.,1.));
#355=DIRECTION('center_axis',(0.,-1.,0.));
#356=DIRECTION('ref_axis',(0.,0.,-1.));
#357=DIRECTION('',(2.16840434497101E-15,0.,1.));
#358=DIRECTION('',(-1.,0.,2.16840434497101E-16));
#359=DIRECTION('',(0.,0.,-1.));
#360=DIRECTION('',(-1.,0.,0.));
#361=DIRECTION('',(0.,0.,-1.));
#362=DIRECTION('center_axis',(1.,0.,-2.16840434497101E-15));
#363=DIRECTION('ref_axis',(-2.16840434497101E-15,0.,-1.));
#364=DIRECTION('center_axis',(2.16840434497101E-16,0.,1.));
#365=DIRECTION('ref_axis',(1.,0.,-2.16840434497101E-16));
#366=DIRECTION('',(0.,-1.,0.));
#367=DIRECTION('center_axis',(-1.,0.,0.));
#368=DIRECTION('ref_axis',(0.,0.,1.));
#369=DIRECTION('',(0.,-1.,0.));
#370=DIRECTION('center_axis',(0.,0.,1.));
#371=DIRECTION('ref_axis',(1.,0.,0.));
#372=DIRECTION('',(0.,-1.,0.));
#373=DIRECTION('center_axis',(-1.,0.,0.));
#374=DIRECTION('ref_axis',(0.,0.,1.));
#375=CARTESIAN_POINT('',(0.,0.,0.));
#376=CARTESIAN_POINT('Origin',(0.,-6.5,5.5));
#377=CARTESIAN_POINT('',(3.06215143177554E-16,-6.5,3.));
#378=CARTESIAN_POINT('',(5.42101086242752E-16,-6.5,8.));
#379=CARTESIAN_POINT('Ctrl Pts',(3.46944695195361E-16,-6.5,3.));
#380=CARTESIAN_POINT('Ctrl Pts',(-0.317350178844274,-6.5,3.));
#381=CARTESIAN_POINT('Ctrl Pts',(-0.653687352095811,-6.47451800568791,3.06408626831879));
#382=CARTESIAN_POINT('Ctrl Pts',(-1.26875184215217,-6.38255116051086,3.32026344765629));
#383=CARTESIAN_POINT('Ctrl Pts',(-1.54771743482774,-6.31718767233566,3.512183528895));
#384=CARTESIAN_POINT('Ctrl Pts',(-1.98800452175562,-6.19275518460504,3.95247061582288));
#385=CARTESIAN_POINT('Ctrl Pts',(-2.17978143190633,-6.12513751479951,4.23136408145978));
#386=CARTESIAN_POINT('Ctrl Pts',(-2.43584975747888,-6.0278846905449,4.8461508799562));
#387=CARTESIAN_POINT('Ctrl Pts',(-2.5,-6.,5.18237861898217));
#388=CARTESIAN_POINT('Ctrl Pts',(-2.5,-6.,5.81762138101783));
#389=CARTESIAN_POINT('Ctrl Pts',(-2.43584975747888,-6.0278846905449,6.15384912004379));
#390=CARTESIAN_POINT('Ctrl Pts',(-2.17978143190633,-6.12513751479951,6.76863591854022));
#391=CARTESIAN_POINT('Ctrl Pts',(-1.98800452175562,-6.19275518460504,7.04752938417711));
#392=CARTESIAN_POINT('Ctrl Pts',(-1.54771743482774,-6.31718767233566,7.487816471105));
#393=CARTESIAN_POINT('Ctrl Pts',(-1.26875184215217,-6.38255116051086,7.67973655234371));
#394=CARTESIAN_POINT('Ctrl Pts',(-0.653687352095813,-6.47451800568791,7.93591373168121));
#395=CARTESIAN_POINT('Ctrl Pts',(-0.317350178844275,-6.5,8.));
#396=CARTESIAN_POINT('Ctrl Pts',(-4.85722573273506E-16,-6.5,8.));
#397=CARTESIAN_POINT('',(-3.06161699786838E-16,-2.5,3.));
#398=CARTESIAN_POINT('',(-3.06161699786838E-16,-6.5,3.));
#399=CARTESIAN_POINT('Origin',(0.,-2.5,5.5));
#400=CARTESIAN_POINT('Ctrl Pts',(3.46944695195361E-17,-6.5,8.));
#401=CARTESIAN_POINT('Ctrl Pts',(0.317350178844274,-6.5,8.));
#402=CARTESIAN_POINT('Ctrl Pts',(0.653687352095812,-6.47451800568791,7.93591373168121));
#403=CARTESIAN_POINT('Ctrl Pts',(1.26875184215217,-6.38255116051086,7.67973655234371));
#404=CARTESIAN_POINT('Ctrl Pts',(1.54771743482774,-6.31718767233566,7.487816471105));
#405=CARTESIAN_POINT('Ctrl Pts',(1.98800452175562,-6.19275518460504,7.04752938417712));
#406=CARTESIAN_POINT('Ctrl Pts',(2.17978143190633,-6.12513751479951,6.76863591854022));
#407=CARTESIAN_POINT('Ctrl Pts',(2.43584975747888,-6.0278846905449,6.15384912004379));
#408=CARTESIAN_POINT('Ctrl Pts',(2.5,-6.,5.81762138101783));
#409=CARTESIAN_POINT('Ctrl Pts',(2.5,-6.,5.5));
#410=CARTESIAN_POINT('Ctrl Pts',(2.5,-6.,5.18237861898217));
#411=CARTESIAN_POINT('Ctrl Pts',(2.43584975747888,-6.0278846905449,4.84615087995621));
#412=CARTESIAN_POINT('Ctrl Pts',(2.17978143190633,-6.12513751479951,4.23136408145978));
#413=CARTESIAN_POINT('Ctrl Pts',(1.98800452175562,-6.19275518460504,3.95247061582289));
#414=CARTESIAN_POINT('Ctrl Pts',(1.54771743482774,-6.31718767233566,3.512183528895));
#415=CARTESIAN_POINT('Ctrl Pts',(1.26875184215217,-6.38255116051086,3.32026344765629));
#416=CARTESIAN_POINT('Ctrl Pts',(0.653687352095812,-6.47451800568791,3.06408626831879));
#417=CARTESIAN_POINT('Ctrl Pts',(0.317350178844274,-6.5,3.));
#418=CARTESIAN_POINT('Ctrl Pts',(-2.77555756156289E-16,-6.5,3.));
#419=CARTESIAN_POINT('Origin',(0.,-2.5,5.5));
#420=CARTESIAN_POINT('',(-5.51091059616309E-16,-2.5,1.));
#421=CARTESIAN_POINT('Origin',(0.,-2.5,5.5));
#422=CARTESIAN_POINT('',(5.5122263066668E-16,6.5,1.));
#423=CARTESIAN_POINT('',(-5.51091059616309E-16,-2.5,1.));
#424=CARTESIAN_POINT('Ctrl Pts',(4.5,4.69041575982343,5.5));
#425=CARTESIAN_POINT('Ctrl Pts',(4.5,4.69041575982343,6.09510343779121));
#426=CARTESIAN_POINT('Ctrl Pts',(4.37684048211794,4.81494369358335,6.70309060302286));
#427=CARTESIAN_POINT('Ctrl Pts',(3.91363032540656,5.19845202364663,7.79949327030352));
#428=CARTESIAN_POINT('Ctrl Pts',(3.57309197214697,5.44832026303554,8.29086905853195));
#429=CARTESIAN_POINT('Ctrl Pts',(2.79612697773495,5.88451196582146,9.06783405294398));
#430=CARTESIAN_POINT('Ctrl Pts',(2.30374609777091,6.10502302823393,9.41175939772576));
#431=CARTESIAN_POINT('Ctrl Pts',(1.19977226259668,6.41397689582421,9.87831654273274));
#432=CARTESIAN_POINT('Ctrl Pts',(0.587103145959119,6.5,10.));
#433=CARTESIAN_POINT('Ctrl Pts',(-0.587103145959119,6.5,10.));
#434=CARTESIAN_POINT('Ctrl Pts',(-1.19977226259668,6.41397689582421,9.87831654273274));
#435=CARTESIAN_POINT('Ctrl Pts',(-2.30374609777091,6.10502302823393,9.41175939772576));
#436=CARTESIAN_POINT('Ctrl Pts',(-2.79612697773495,5.88451196582146,9.06783405294398));
#437=CARTESIAN_POINT('Ctrl Pts',(-3.57309197214697,5.44832026303554,8.29086905853196));
#438=CARTESIAN_POINT('Ctrl Pts',(-3.91363032540656,5.19845202364663,7.79949327030352));
#439=CARTESIAN_POINT('Ctrl Pts',(-4.37684048211794,4.81494369358335,6.70309060302287));
#440=CARTESIAN_POINT('Ctrl Pts',(-4.5,4.69041575982343,6.09510343779121));
#441=CARTESIAN_POINT('Ctrl Pts',(-4.5,4.69041575982343,4.90489656220879));
#442=CARTESIAN_POINT('Ctrl Pts',(-4.37684048211794,4.81494369358335,4.29690939697714));
#443=CARTESIAN_POINT('Ctrl Pts',(-3.91363032540656,5.19845202364663,3.20050672969648));
#444=CARTESIAN_POINT('Ctrl Pts',(-3.57309197214697,5.44832026303554,2.70913094146805));
#445=CARTESIAN_POINT('Ctrl Pts',(-2.79612697773495,5.88451196582146,1.93216594705603));
#446=CARTESIAN_POINT('Ctrl Pts',(-2.30374609777091,6.10502302823393,1.58824060227425));
#447=CARTESIAN_POINT('Ctrl Pts',(-1.19977226259669,6.41397689582421,1.12168345726726));
#448=CARTESIAN_POINT('Ctrl Pts',(-0.58710314595912,6.5,1.));
#449=CARTESIAN_POINT('Ctrl Pts',(0.587103145959118,6.5,1.));
#450=CARTESIAN_POINT('Ctrl Pts',(1.19977226259668,6.41397689582421,1.12168345726726));
#451=CARTESIAN_POINT('Ctrl Pts',(2.30374609777091,6.10502302823393,1.58824060227424));
#452=CARTESIAN_POINT('Ctrl Pts',(2.79612697773495,5.88451196582146,1.93216594705603));
#453=CARTESIAN_POINT('Ctrl Pts',(3.57309197214697,5.44832026303554,2.70913094146805));
#454=CARTESIAN_POINT('Ctrl Pts',(3.91363032540656,5.19845202364663,3.20050672969648));
#455=CARTESIAN_POINT('Ctrl Pts',(4.37684048211794,4.81494369358335,4.29690939697714));
#456=CARTESIAN_POINT('Ctrl Pts',(4.5,4.69041575982343,4.90489656220879));
#457=CARTESIAN_POINT('Ctrl Pts',(4.5,4.69041575982343,5.5));
#458=CARTESIAN_POINT('Origin',(0.,0.,11.));
#459=CARTESIAN_POINT('',(6.5,-7.96020419445779E-16,0.));
#460=CARTESIAN_POINT('Origin',(0.,0.,0.));
#461=CARTESIAN_POINT('',(6.5,-7.96020419445779E-16,11.));
#462=CARTESIAN_POINT('',(6.5,-7.96020419445779E-16,11.));
#463=CARTESIAN_POINT('',(4.8,-4.38292140016222,11.));
#464=CARTESIAN_POINT('Origin',(0.,0.,11.));
#465=CARTESIAN_POINT('',(4.8,-4.38292140016222,10.2));
#466=CARTESIAN_POINT('',(4.8,-4.38292140016222,11.));
#467=CARTESIAN_POINT('',(4.,-5.12347538295899,10.2));
#468=CARTESIAN_POINT('Origin',(0.,0.,10.2));
#469=CARTESIAN_POINT('',(4.,-5.1234753829798,8.));
#470=CARTESIAN_POINT('',(4.,-5.1234753829798,11.));
#471=CARTESIAN_POINT('Origin',(0.,0.,8.));
#472=CARTESIAN_POINT('',(-4.,-5.12347538295899,8.));
#473=CARTESIAN_POINT('Origin',(0.,0.,8.));
#474=CARTESIAN_POINT('',(-4.,-5.1234753829798,10.2));
#475=CARTESIAN_POINT('',(-4.,-5.1234753829798,11.));
#476=CARTESIAN_POINT('',(-4.8,-4.38292140016223,10.2));
#477=CARTESIAN_POINT('Origin',(0.,0.,10.2));
#478=CARTESIAN_POINT('',(-4.8,-4.38292140016223,11.));
#479=CARTESIAN_POINT('',(-4.8,-4.38292140016223,11.));
#480=CARTESIAN_POINT('Origin',(0.,0.,11.));
#481=CARTESIAN_POINT('Origin',(0.,0.,11.));
#482=CARTESIAN_POINT('',(-4.8,-16.,11.));
#483=CARTESIAN_POINT('',(-4.8,500000.,11.));
#484=CARTESIAN_POINT('',(4.8,-16.,11.));
#485=CARTESIAN_POINT('',(-4.8,-16.,11.));
#486=CARTESIAN_POINT('',(4.8,500000.,11.));
#487=CARTESIAN_POINT('Origin',(0.,0.,0.));
#488=CARTESIAN_POINT('Origin',(0.,-2.5,5.5));
#489=CARTESIAN_POINT('Origin',(-4.8,500000.,10.2));
#490=CARTESIAN_POINT('',(-4.,-16.,10.2));
#491=CARTESIAN_POINT('',(-4.,500000.,10.2));
#492=CARTESIAN_POINT('',(-4.8,-16.,10.2));
#493=CARTESIAN_POINT('',(-4.8,-16.,10.2));
#494=CARTESIAN_POINT('',(-4.8,500000.,10.2));
#495=CARTESIAN_POINT('Origin',(-4.,500000.,10.2));
#496=CARTESIAN_POINT('',(-4.,-16.,8.));
#497=CARTESIAN_POINT('',(-4.,500000.,8.));
#498=CARTESIAN_POINT('',(-4.,-16.,10.2));
#499=CARTESIAN_POINT('Origin',(-4.8,-16.,8.));
#500=CARTESIAN_POINT('',(-4.8,-16.,11.));
#501=CARTESIAN_POINT('',(4.,-16.,8.));
#502=CARTESIAN_POINT('',(-4.,-16.,8.));
#503=CARTESIAN_POINT('',(4.,-16.,10.2));
#504=CARTESIAN_POINT('',(4.,-16.,8.));
#505=CARTESIAN_POINT('',(4.8,-16.,10.2));
#506=CARTESIAN_POINT('',(4.,-16.,10.2));
#507=CARTESIAN_POINT('',(4.8,-16.,10.2));
#508=CARTESIAN_POINT('Origin',(-4.8,500000.,11.));
#509=CARTESIAN_POINT('Origin',(-4.,500000.,8.));
#510=CARTESIAN_POINT('',(4.,500000.,8.));
#511=CARTESIAN_POINT('Origin',(4.,500000.,8.));
#512=CARTESIAN_POINT('',(4.,500000.,10.2));
#513=CARTESIAN_POINT('Origin',(4.,500000.,10.2));
#514=CARTESIAN_POINT('',(4.8,500000.,10.2));
#515=CARTESIAN_POINT('Origin',(4.8,500000.,10.2));
#516=UNCERTAINTY_MEASURE_WITH_UNIT(LENGTH_MEASURE(0.01),#520,
'DISTANCE_ACCURACY_VALUE',
'Maximum model space distance between geometric entities at asserted c
onnectivities');
#517=UNCERTAINTY_MEASURE_WITH_UNIT(LENGTH_MEASURE(0.01),#520,
'DISTANCE_ACCURACY_VALUE',
'Maximum model space distance between geometric entities at asserted c
onnectivities');
#518=(
GEOMETRIC_REPRESENTATION_CONTEXT(3)
GLOBAL_UNCERTAINTY_ASSIGNED_CONTEXT((#516))
GLOBAL_UNIT_ASSIGNED_CONTEXT((#520,#522,#523))
REPRESENTATION_CONTEXT('','3D')
);
#519=(
GEOMETRIC_REPRESENTATION_CONTEXT(3)
GLOBAL_UNCERTAINTY_ASSIGNED_CONTEXT((#517))
GLOBAL_UNIT_ASSIGNED_CONTEXT((#520,#522,#523))
REPRESENTATION_CONTEXT('','3D')
);
#520=(
LENGTH_UNIT()
NAMED_UNIT(*)
SI_UNIT(.MILLI.,.METRE.)
);
#521=(
LENGTH_UNIT()
NAMED_UNIT(*)
SI_UNIT(.CENTI.,.METRE.)
);
#522=(
NAMED_UNIT(*)
PLANE_ANGLE_UNIT()
SI_UNIT($,.RADIAN.)
);
#523=(
NAMED_UNIT(*)
SI_UNIT($,.STERADIAN.)
SOLID_ANGLE_UNIT()
);
#524=SHAPE_DEFINITION_REPRESENTATION(#525,#526);
#525=PRODUCT_DEFINITION_SHAPE('',$,#528);
#526=SHAPE_REPRESENTATION('',(#280),#518);
#527=PRODUCT_DEFINITION_CONTEXT('part definition',#532,'design');
#528=PRODUCT_DEFINITION('PCB30-08','PCB30-08',#529,#527);
#529=PRODUCT_DEFINITION_FORMATION('A00',$,#534);
#530=PRODUCT_RELATED_PRODUCT_CATEGORY('PCB30-08','PCB30-08',(#534));
#531=APPLICATION_PROTOCOL_DEFINITION('international standard',
'automotive_design',2009,#532);
#532=APPLICATION_CONTEXT(
'Core Data for Automotive Mechanical Design Process');
#533=PRODUCT_CONTEXT('part definition',#532,'mechanical');
#534=PRODUCT('PCB30-08','PCB30-08','Connessione laterale serie 30',(#533));
#535=PRESENTATION_STYLE_ASSIGNMENT((#536));
#536=SURFACE_STYLE_USAGE(.BOTH.,#539);
#537=SURFACE_STYLE_RENDERING_WITH_PROPERTIES($,#543,(#538));
#538=SURFACE_STYLE_TRANSPARENT(0.);
#539=SURFACE_SIDE_STYLE('',(#540,#537));
#540=SURFACE_STYLE_FILL_AREA(#541);
#541=FILL_AREA_STYLE('',(#542));
#542=FILL_AREA_STYLE_COLOUR('',#543);
#543=COLOUR_RGB('',0.647058823529412,0.67843137254902,0.694117647058824);
ENDSEC;
END-ISO-10303-21;
