ISO-10303-21;
HEADER;
/* Generated by software containing ST-Developer
 * from STEP Tools, Inc. (www.steptools.com) 
 */

FILE_DESCRIPTION(
/* description */ ('Connessione laterale serie 40-45-50-60'),
/* implementation_level */ '2;1');

FILE_NAME(
/* name */ 'C:\\Users\\Stefan.Nesic\\Desktop\\01010STEP\\PCB00-10.stp',

/* time_stamp */ '2022-06-18T10:34:23+02:00',
/* author */ ('USER'),
/* organization */ ('Microsoft'),
/* preprocessor_version */ 'ST-DEVELOPER v18.1',
/* originating_system */ 'Autodesk Inventor 2021',
/* authorisation */ '');

FILE_SCHEMA (('AUTOMOTIVE_DESIGN { 1 0 10303 214 3 1 1 }'));
ENDSEC;

DATA;
#10=MECHANICAL_DESIGN_GEOMETRIC_PRESENTATION_REPRESENTATION('',(#13),#527);
#11=SHAPE_REPRESENTATION_RELATIONSHIP('SRR','None',#534,#12);
#12=ADVANCED_BREP_SHAPE_REPRESENTATION('',(#14),#526);
#13=STYLED_ITEM('',(#543),#14);
#14=MANIFOLD_SOLID_BREP('Solido1',#261);
#15=PLANE('',#293);
#16=PLANE('',#294);
#17=PLANE('',#295);
#18=PLANE('',#296);
#19=PLANE('',#297);
#20=PLANE('',#298);
#21=PLANE('',#299);
#22=PLANE('',#300);
#23=PLANE('',#301);
#24=PLANE('',#302);
#25=PLANE('',#303);
#26=FACE_BOUND('',#45,.T.);
#27=FACE_BOUND('',#49,.T.);
#28=FACE_OUTER_BOUND('',#42,.T.);
#29=FACE_OUTER_BOUND('',#43,.T.);
#30=FACE_OUTER_BOUND('',#44,.T.);
#31=FACE_OUTER_BOUND('',#46,.T.);
#32=FACE_OUTER_BOUND('',#47,.T.);
#33=FACE_OUTER_BOUND('',#48,.T.);
#34=FACE_OUTER_BOUND('',#50,.T.);
#35=FACE_OUTER_BOUND('',#51,.T.);
#36=FACE_OUTER_BOUND('',#52,.T.);
#37=FACE_OUTER_BOUND('',#53,.T.);
#38=FACE_OUTER_BOUND('',#54,.T.);
#39=FACE_OUTER_BOUND('',#55,.T.);
#40=FACE_OUTER_BOUND('',#56,.T.);
#41=FACE_OUTER_BOUND('',#57,.T.);
#42=EDGE_LOOP('',(#174,#175,#176,#177,#178));
#43=EDGE_LOOP('',(#179,#180,#181,#182));
#44=EDGE_LOOP('',(#183,#184,#185,#186,#187,#188,#189,#190,#191,#192,#193,
#194,#195,#196,#197));
#45=EDGE_LOOP('',(#198));
#46=EDGE_LOOP('',(#199,#200,#201,#202,#203));
#47=EDGE_LOOP('',(#204));
#48=EDGE_LOOP('',(#205));
#49=EDGE_LOOP('',(#206));
#50=EDGE_LOOP('',(#207,#208,#209,#210));
#51=EDGE_LOOP('',(#211,#212,#213,#214));
#52=EDGE_LOOP('',(#215,#216,#217,#218,#219,#220,#221,#222));
#53=EDGE_LOOP('',(#223,#224,#225,#226));
#54=EDGE_LOOP('',(#227,#228,#229,#230,#231));
#55=EDGE_LOOP('',(#232,#233,#234,#235));
#56=EDGE_LOOP('',(#236,#237,#238,#239));
#57=EDGE_LOOP('',(#240,#241,#242,#243));
#58=CIRCLE('',#282,4.);
#59=CIRCLE('',#284,6.5);
#60=CIRCLE('',#286,8.5);
#61=CIRCLE('',#287,8.5);
#62=CIRCLE('',#288,8.5);
#63=CIRCLE('',#289,8.5);
#64=CIRCLE('',#290,8.5);
#65=CIRCLE('',#291,8.5);
#66=CIRCLE('',#292,8.5);
#67=LINE('',#398,#90);
#68=LINE('',#423,#91);
#69=LINE('',#470,#92);
#70=LINE('',#474,#93);
#71=LINE('',#478,#94);
#72=LINE('',#483,#95);
#73=LINE('',#487,#96);
#74=LINE('',#491,#97);
#75=LINE('',#493,#98);
#76=LINE('',#494,#99);
#77=LINE('',#499,#100);
#78=LINE('',#501,#101);
#79=LINE('',#502,#102);
#80=LINE('',#505,#103);
#81=LINE('',#506,#104);
#82=LINE('',#508,#105);
#83=LINE('',#510,#106);
#84=LINE('',#512,#107);
#85=LINE('',#514,#108);
#86=LINE('',#515,#109);
#87=LINE('',#518,#110);
#88=LINE('',#520,#111);
#89=LINE('',#522,#112);
#90=VECTOR('',#308,4.);
#91=VECTOR('',#315,6.5);
#92=VECTOR('',#320,8.5);
#93=VECTOR('',#323,1000.);
#94=VECTOR('',#326,1000.);
#95=VECTOR('',#331,1000.);
#96=VECTOR('',#334,1000.);
#97=VECTOR('',#339,1000.);
#98=VECTOR('',#340,1000.);
#99=VECTOR('',#341,1000.);
#100=VECTOR('',#348,1000.);
#101=VECTOR('',#349,1000.);
#102=VECTOR('',#350,1000.);
#103=VECTOR('',#353,1000.);
#104=VECTOR('',#354,1000.);
#105=VECTOR('',#357,1000.);
#106=VECTOR('',#358,1000.);
#107=VECTOR('',#359,1000.);
#108=VECTOR('',#360,1000.);
#109=VECTOR('',#361,1000.);
#110=VECTOR('',#366,1000.);
#111=VECTOR('',#369,1000.);
#112=VECTOR('',#372,1000.);
#113=B_SPLINE_CURVE_WITH_KNOTS('',3,(#379,#380,#381,#382,#383,#384,#385,
#386,#387,#388,#389,#390,#391,#392,#393,#394,#395,#396),.UNSPECIFIED.,.F.,
 .F.,(4,2,2,2,2,2,2,2,4),(0.613430912820706,0.766629647538084,0.919828382255462,
1.07334510394844,1.22686182564141,1.38037854733439,1.53389526902736,1.68709400374474,
1.84029273846212),.UNSPECIFIED.);
#114=B_SPLINE_CURVE_WITH_KNOTS('',3,(#400,#401,#402,#403,#404,#405,#406,
#407,#408,#409,#410,#411,#412,#413,#414,#415,#416,#417,#418),
 .UNSPECIFIED.,.F.,.F.,(4,2,2,2,3,2,2,2,4),(-0.613430912820706,-0.460232178103329,
-0.307033443385951,-0.153516721692976,0.,0.153516721692976,0.307033443385952,
0.460232178103329,0.613430912820707),.UNSPECIFIED.);
#115=B_SPLINE_CURVE_WITH_KNOTS('',3,(#424,#425,#426,#427,#428,#429,#430,
#431,#432,#433,#434,#435,#436,#437,#438,#439,#440,#441,#442,#443,#444,#445,
#446,#447,#448,#449,#450,#451,#452,#453,#454,#455,#456,#457,#458,#459,#460,
#461,#462,#463,#464,#465),.UNSPECIFIED.,.T.,.F.,(4,2,2,2,2,2,2,2,2,2,2,
2,2,2,2,2,2,2,2,2,4),(-4.16030581223577,-4.02874513699318,-3.89718446175059,
-3.63406311126541,-3.37714623522112,-3.12022935917683,-2.86331248313253,
-2.60639560708824,-2.34327425660306,-2.21171358136047,-2.08015290611788,
-1.9485922308753,-1.81703155563271,-1.55391020514753,-1.29699332910324,
-1.04007645305894,-0.783159577014648,-0.526242700970355,-0.263121350485177,
-0.131560675242589,0.),.UNSPECIFIED.);
#116=VERTEX_POINT('',#377);
#117=VERTEX_POINT('',#378);
#118=VERTEX_POINT('',#397);
#119=VERTEX_POINT('',#420);
#120=VERTEX_POINT('',#422);
#121=VERTEX_POINT('',#467);
#122=VERTEX_POINT('',#469);
#123=VERTEX_POINT('',#471);
#124=VERTEX_POINT('',#473);
#125=VERTEX_POINT('',#475);
#126=VERTEX_POINT('',#477);
#127=VERTEX_POINT('',#480);
#128=VERTEX_POINT('',#482);
#129=VERTEX_POINT('',#484);
#130=VERTEX_POINT('',#486);
#131=VERTEX_POINT('',#490);
#132=VERTEX_POINT('',#492);
#133=VERTEX_POINT('',#498);
#134=VERTEX_POINT('',#500);
#135=VERTEX_POINT('',#504);
#136=VERTEX_POINT('',#509);
#137=VERTEX_POINT('',#511);
#138=VERTEX_POINT('',#513);
#139=EDGE_CURVE('',#116,#117,#113,.T.);
#140=EDGE_CURVE('',#116,#118,#67,.T.);
#141=EDGE_CURVE('',#118,#118,#58,.T.);
#142=EDGE_CURVE('',#117,#116,#114,.T.);
#143=EDGE_CURVE('',#119,#119,#59,.T.);
#144=EDGE_CURVE('',#119,#120,#68,.T.);
#145=EDGE_CURVE('',#120,#120,#115,.T.);
#146=EDGE_CURVE('',#121,#121,#60,.T.);
#147=EDGE_CURVE('',#121,#122,#69,.T.);
#148=EDGE_CURVE('',#123,#122,#61,.T.);
#149=EDGE_CURVE('',#123,#124,#70,.T.);
#150=EDGE_CURVE('',#124,#125,#62,.T.);
#151=EDGE_CURVE('',#125,#126,#71,.T.);
#152=EDGE_CURVE('',#126,#117,#63,.T.);
#153=EDGE_CURVE('',#117,#127,#64,.T.);
#154=EDGE_CURVE('',#127,#128,#72,.T.);
#155=EDGE_CURVE('',#128,#129,#65,.T.);
#156=EDGE_CURVE('',#129,#130,#73,.T.);
#157=EDGE_CURVE('',#122,#130,#66,.T.);
#158=EDGE_CURVE('',#130,#131,#74,.T.);
#159=EDGE_CURVE('',#131,#132,#75,.T.);
#160=EDGE_CURVE('',#123,#132,#76,.T.);
#161=EDGE_CURVE('',#128,#133,#77,.T.);
#162=EDGE_CURVE('',#133,#134,#78,.T.);
#163=EDGE_CURVE('',#129,#134,#79,.T.);
#164=EDGE_CURVE('',#127,#135,#80,.T.);
#165=EDGE_CURVE('',#135,#133,#81,.T.);
#166=EDGE_CURVE('',#134,#131,#82,.T.);
#167=EDGE_CURVE('',#136,#135,#83,.T.);
#168=EDGE_CURVE('',#137,#136,#84,.T.);
#169=EDGE_CURVE('',#138,#137,#85,.T.);
#170=EDGE_CURVE('',#132,#138,#86,.T.);
#171=EDGE_CURVE('',#126,#136,#87,.T.);
#172=EDGE_CURVE('',#125,#137,#88,.T.);
#173=EDGE_CURVE('',#124,#138,#89,.T.);
#174=ORIENTED_EDGE('',*,*,#139,.F.);
#175=ORIENTED_EDGE('',*,*,#140,.T.);
#176=ORIENTED_EDGE('',*,*,#141,.T.);
#177=ORIENTED_EDGE('',*,*,#140,.F.);
#178=ORIENTED_EDGE('',*,*,#142,.F.);
#179=ORIENTED_EDGE('',*,*,#143,.F.);
#180=ORIENTED_EDGE('',*,*,#144,.T.);
#181=ORIENTED_EDGE('',*,*,#145,.F.);
#182=ORIENTED_EDGE('',*,*,#144,.F.);
#183=ORIENTED_EDGE('',*,*,#146,.T.);
#184=ORIENTED_EDGE('',*,*,#147,.T.);
#185=ORIENTED_EDGE('',*,*,#148,.F.);
#186=ORIENTED_EDGE('',*,*,#149,.T.);
#187=ORIENTED_EDGE('',*,*,#150,.T.);
#188=ORIENTED_EDGE('',*,*,#151,.T.);
#189=ORIENTED_EDGE('',*,*,#152,.T.);
#190=ORIENTED_EDGE('',*,*,#142,.T.);
#191=ORIENTED_EDGE('',*,*,#139,.T.);
#192=ORIENTED_EDGE('',*,*,#153,.T.);
#193=ORIENTED_EDGE('',*,*,#154,.T.);
#194=ORIENTED_EDGE('',*,*,#155,.T.);
#195=ORIENTED_EDGE('',*,*,#156,.T.);
#196=ORIENTED_EDGE('',*,*,#157,.F.);
#197=ORIENTED_EDGE('',*,*,#147,.F.);
#198=ORIENTED_EDGE('',*,*,#145,.T.);
#199=ORIENTED_EDGE('',*,*,#148,.T.);
#200=ORIENTED_EDGE('',*,*,#157,.T.);
#201=ORIENTED_EDGE('',*,*,#158,.T.);
#202=ORIENTED_EDGE('',*,*,#159,.T.);
#203=ORIENTED_EDGE('',*,*,#160,.F.);
#204=ORIENTED_EDGE('',*,*,#146,.F.);
#205=ORIENTED_EDGE('',*,*,#143,.T.);
#206=ORIENTED_EDGE('',*,*,#141,.F.);
#207=ORIENTED_EDGE('',*,*,#155,.F.);
#208=ORIENTED_EDGE('',*,*,#161,.T.);
#209=ORIENTED_EDGE('',*,*,#162,.T.);
#210=ORIENTED_EDGE('',*,*,#163,.F.);
#211=ORIENTED_EDGE('',*,*,#154,.F.);
#212=ORIENTED_EDGE('',*,*,#164,.T.);
#213=ORIENTED_EDGE('',*,*,#165,.T.);
#214=ORIENTED_EDGE('',*,*,#161,.F.);
#215=ORIENTED_EDGE('',*,*,#166,.F.);
#216=ORIENTED_EDGE('',*,*,#162,.F.);
#217=ORIENTED_EDGE('',*,*,#165,.F.);
#218=ORIENTED_EDGE('',*,*,#167,.F.);
#219=ORIENTED_EDGE('',*,*,#168,.F.);
#220=ORIENTED_EDGE('',*,*,#169,.F.);
#221=ORIENTED_EDGE('',*,*,#170,.F.);
#222=ORIENTED_EDGE('',*,*,#159,.F.);
#223=ORIENTED_EDGE('',*,*,#156,.F.);
#224=ORIENTED_EDGE('',*,*,#163,.T.);
#225=ORIENTED_EDGE('',*,*,#166,.T.);
#226=ORIENTED_EDGE('',*,*,#158,.F.);
#227=ORIENTED_EDGE('',*,*,#164,.F.);
#228=ORIENTED_EDGE('',*,*,#153,.F.);
#229=ORIENTED_EDGE('',*,*,#152,.F.);
#230=ORIENTED_EDGE('',*,*,#171,.T.);
#231=ORIENTED_EDGE('',*,*,#167,.T.);
#232=ORIENTED_EDGE('',*,*,#151,.F.);
#233=ORIENTED_EDGE('',*,*,#172,.T.);
#234=ORIENTED_EDGE('',*,*,#168,.T.);
#235=ORIENTED_EDGE('',*,*,#171,.F.);
#236=ORIENTED_EDGE('',*,*,#150,.F.);
#237=ORIENTED_EDGE('',*,*,#173,.T.);
#238=ORIENTED_EDGE('',*,*,#169,.T.);
#239=ORIENTED_EDGE('',*,*,#172,.F.);
#240=ORIENTED_EDGE('',*,*,#149,.F.);
#241=ORIENTED_EDGE('',*,*,#160,.T.);
#242=ORIENTED_EDGE('',*,*,#170,.T.);
#243=ORIENTED_EDGE('',*,*,#173,.F.);
#244=CYLINDRICAL_SURFACE('',#281,4.);
#245=CYLINDRICAL_SURFACE('',#283,6.5);
#246=CYLINDRICAL_SURFACE('',#285,8.5);
#247=ADVANCED_FACE('',(#28),#244,.F.);
#248=ADVANCED_FACE('',(#29),#245,.F.);
#249=ADVANCED_FACE('',(#30,#26),#246,.T.);
#250=ADVANCED_FACE('',(#31),#15,.T.);
#251=ADVANCED_FACE('',(#32),#16,.F.);
#252=ADVANCED_FACE('',(#33,#27),#17,.T.);
#253=ADVANCED_FACE('',(#34),#18,.F.);
#254=ADVANCED_FACE('',(#35),#19,.F.);
#255=ADVANCED_FACE('',(#36),#20,.T.);
#256=ADVANCED_FACE('',(#37),#21,.F.);
#257=ADVANCED_FACE('',(#38),#22,.F.);
#258=ADVANCED_FACE('',(#39),#23,.F.);
#259=ADVANCED_FACE('',(#40),#24,.F.);
#260=ADVANCED_FACE('',(#41),#25,.F.);
#261=CLOSED_SHELL('',(#247,#248,#249,#250,#251,#252,#253,#254,#255,#256,
#257,#258,#259,#260));
#262=DERIVED_UNIT_ELEMENT(#264,1.);
#263=DERIVED_UNIT_ELEMENT(#529,-3.);
#264=(
MASS_UNIT()
NAMED_UNIT(*)
SI_UNIT($,.GRAM.)
);
#265=DERIVED_UNIT((#262,#263));
#266=MEASURE_REPRESENTATION_ITEM('density measure',
POSITIVE_RATIO_MEASURE(7.85),#265);
#267=PROPERTY_DEFINITION_REPRESENTATION(#272,#269);
#268=PROPERTY_DEFINITION_REPRESENTATION(#273,#270);
#269=REPRESENTATION('material name',(#271),#526);
#270=REPRESENTATION('density',(#266),#526);
#271=DESCRIPTIVE_REPRESENTATION_ITEM('Acciaio','Acciaio');
#272=PROPERTY_DEFINITION('material property','material name',#536);
#273=PROPERTY_DEFINITION('material property','density of part',#536);
#274=DATE_TIME_ROLE('creation_date');
#275=APPLIED_DATE_AND_TIME_ASSIGNMENT(#276,#274,(#536));
#276=DATE_AND_TIME(#277,#278);
#277=CALENDAR_DATE(2014,25,6);
#278=LOCAL_TIME(0,0,0.,#279);
#279=COORDINATED_UNIVERSAL_TIME_OFFSET(0,0,.BEHIND.);
#280=AXIS2_PLACEMENT_3D('placement',#375,#304,#305);
#281=AXIS2_PLACEMENT_3D('',#376,#306,#307);
#282=AXIS2_PLACEMENT_3D('',#399,#309,#310);
#283=AXIS2_PLACEMENT_3D('',#419,#311,#312);
#284=AXIS2_PLACEMENT_3D('',#421,#313,#314);
#285=AXIS2_PLACEMENT_3D('',#466,#316,#317);
#286=AXIS2_PLACEMENT_3D('',#468,#318,#319);
#287=AXIS2_PLACEMENT_3D('',#472,#321,#322);
#288=AXIS2_PLACEMENT_3D('',#476,#324,#325);
#289=AXIS2_PLACEMENT_3D('',#479,#327,#328);
#290=AXIS2_PLACEMENT_3D('',#481,#329,#330);
#291=AXIS2_PLACEMENT_3D('',#485,#332,#333);
#292=AXIS2_PLACEMENT_3D('',#488,#335,#336);
#293=AXIS2_PLACEMENT_3D('',#489,#337,#338);
#294=AXIS2_PLACEMENT_3D('',#495,#342,#343);
#295=AXIS2_PLACEMENT_3D('',#496,#344,#345);
#296=AXIS2_PLACEMENT_3D('',#497,#346,#347);
#297=AXIS2_PLACEMENT_3D('',#503,#351,#352);
#298=AXIS2_PLACEMENT_3D('',#507,#355,#356);
#299=AXIS2_PLACEMENT_3D('',#516,#362,#363);
#300=AXIS2_PLACEMENT_3D('',#517,#364,#365);
#301=AXIS2_PLACEMENT_3D('',#519,#367,#368);
#302=AXIS2_PLACEMENT_3D('',#521,#370,#371);
#303=AXIS2_PLACEMENT_3D('',#523,#373,#374);
#304=DIRECTION('axis',(0.,0.,1.));
#305=DIRECTION('refdir',(1.,0.,0.));
#306=DIRECTION('center_axis',(0.,1.,0.));
#307=DIRECTION('ref_axis',(0.,0.,1.));
#308=DIRECTION('',(0.,1.,0.));
#309=DIRECTION('center_axis',(0.,1.,0.));
#310=DIRECTION('ref_axis',(0.,0.,1.));
#311=DIRECTION('center_axis',(0.,1.,0.));
#312=DIRECTION('ref_axis',(0.,0.,1.));
#313=DIRECTION('center_axis',(0.,1.,0.));
#314=DIRECTION('ref_axis',(0.,0.,1.));
#315=DIRECTION('',(0.,1.,0.));
#316=DIRECTION('center_axis',(0.,0.,-1.));
#317=DIRECTION('ref_axis',(-1.,0.,0.));
#318=DIRECTION('center_axis',(0.,0.,1.));
#319=DIRECTION('ref_axis',(1.,0.,0.));
#320=DIRECTION('',(0.,0.,1.));
#321=DIRECTION('center_axis',(0.,0.,1.));
#322=DIRECTION('ref_axis',(1.,0.,0.));
#323=DIRECTION('',(0.,0.,-1.));
#324=DIRECTION('center_axis',(0.,0.,-1.));
#325=DIRECTION('ref_axis',(1.,0.,0.));
#326=DIRECTION('',(0.,0.,-1.));
#327=DIRECTION('center_axis',(-1.73472347597681E-16,0.,-1.));
#328=DIRECTION('ref_axis',(1.,8.88178419700125E-16,-1.73472347597681E-16));
#329=DIRECTION('center_axis',(-1.73472347597681E-16,0.,-1.));
#330=DIRECTION('ref_axis',(1.,0.,-1.73472347597681E-16));
#331=DIRECTION('',(0.,0.,1.));
#332=DIRECTION('center_axis',(0.,0.,-1.));
#333=DIRECTION('ref_axis',(1.,0.,0.));
#334=DIRECTION('',(0.,0.,1.));
#335=DIRECTION('center_axis',(0.,0.,1.));
#336=DIRECTION('ref_axis',(1.,0.,0.));
#337=DIRECTION('center_axis',(0.,0.,1.));
#338=DIRECTION('ref_axis',(1.,0.,0.));
#339=DIRECTION('',(0.,-1.,0.));
#340=DIRECTION('',(1.,0.,-2.89120579329468E-16));
#341=DIRECTION('',(0.,-1.,0.));
#342=DIRECTION('center_axis',(0.,0.,1.));
#343=DIRECTION('ref_axis',(1.,0.,0.));
#344=DIRECTION('center_axis',(0.,1.,0.));
#345=DIRECTION('ref_axis',(0.,0.,1.));
#346=DIRECTION('center_axis',(0.,0.,1.));
#347=DIRECTION('ref_axis',(1.,0.,0.));
#348=DIRECTION('',(0.,-1.,0.));
#349=DIRECTION('',(-1.,0.,0.));
#350=DIRECTION('',(0.,-1.,0.));
#351=DIRECTION('center_axis',(1.,0.,0.));
#352=DIRECTION('ref_axis',(0.,0.,-1.));
#353=DIRECTION('',(0.,-1.,0.));
#354=DIRECTION('',(0.,0.,1.));
#355=DIRECTION('center_axis',(0.,-1.,0.));
#356=DIRECTION('ref_axis',(0.,0.,-1.));
#357=DIRECTION('',(0.,0.,1.));
#358=DIRECTION('',(-1.,0.,1.73472347597681E-16));
#359=DIRECTION('',(0.,0.,-1.));
#360=DIRECTION('',(-1.,0.,0.));
#361=DIRECTION('',(0.,0.,-1.));
#362=DIRECTION('center_axis',(1.,0.,0.));
#363=DIRECTION('ref_axis',(0.,0.,-1.));
#364=DIRECTION('center_axis',(1.73472347597681E-16,0.,1.));
#365=DIRECTION('ref_axis',(1.,0.,-1.73472347597681E-16));
#366=DIRECTION('',(0.,-1.,0.));
#367=DIRECTION('center_axis',(-1.,0.,0.));
#368=DIRECTION('ref_axis',(0.,0.,1.));
#369=DIRECTION('',(0.,-1.,0.));
#370=DIRECTION('center_axis',(0.,0.,1.));
#371=DIRECTION('ref_axis',(1.,0.,0.));
#372=DIRECTION('',(0.,-1.,0.));
#373=DIRECTION('center_axis',(-1.,0.,0.));
#374=DIRECTION('ref_axis',(0.,0.,1.));
#375=CARTESIAN_POINT('',(0.,0.,0.));
#376=CARTESIAN_POINT('Origin',(0.,-8.5,7.));
#377=CARTESIAN_POINT('',(4.8985921204802E-16,-8.5,3.));
#378=CARTESIAN_POINT('',(6.93889390390723E-16,-8.5,11.));
#379=CARTESIAN_POINT('Ctrl Pts',(5.55111512312578E-16,-8.5,3.));
#380=CARTESIAN_POINT('Ctrl Pts',(-0.510662449057925,-8.5,3.));
#381=CARTESIAN_POINT('Ctrl Pts',(-1.05009892728332,-8.44969256939796,3.10368496284665));
#382=CARTESIAN_POINT('Ctrl Pts',(-2.03353418176194,-8.26829794527814,3.51449907840713));
#383=CARTESIAN_POINT('Ctrl Pts',(-2.47807547728031,-8.13923656056867,3.82122122778792));
#384=CARTESIAN_POINT('Ctrl Pts',(-3.17950597965918,-7.89172637534918,4.5226517301668));
#385=CARTESIAN_POINT('Ctrl Pts',(-3.48568850685861,-7.75576304808049,4.96693778776853));
#386=CARTESIAN_POINT('Ctrl Pts',(-3.89607388117928,-7.55794271005211,5.94930086501592));
#387=CARTESIAN_POINT('Ctrl Pts',(-4.,-7.5,6.48827759435675));
#388=CARTESIAN_POINT('Ctrl Pts',(-4.,-7.5,7.51172240564325));
#389=CARTESIAN_POINT('Ctrl Pts',(-3.89607388117928,-7.55794271005211,8.05069913498409));
#390=CARTESIAN_POINT('Ctrl Pts',(-3.48568850685861,-7.75576304808049,9.03306221223147));
#391=CARTESIAN_POINT('Ctrl Pts',(-3.17950597965918,-7.89172637534918,9.4773482698332));
#392=CARTESIAN_POINT('Ctrl Pts',(-2.47807547728031,-8.13923656056867,10.1787787722121));
#393=CARTESIAN_POINT('Ctrl Pts',(-2.03353418176194,-8.26829794527814,10.4855009215929));
#394=CARTESIAN_POINT('Ctrl Pts',(-1.05009892728332,-8.44969256939796,10.8963150371534));
#395=CARTESIAN_POINT('Ctrl Pts',(-0.510662449057926,-8.5,11.));
#396=CARTESIAN_POINT('Ctrl Pts',(-1.00613961606655E-15,-8.5,11.));
#397=CARTESIAN_POINT('',(-4.89858719658941E-16,-3.5,3.));
#398=CARTESIAN_POINT('',(-4.89858719658941E-16,-8.5,3.));
#399=CARTESIAN_POINT('Origin',(0.,-3.5,7.));
#400=CARTESIAN_POINT('Ctrl Pts',(0.,-8.5,11.));
#401=CARTESIAN_POINT('Ctrl Pts',(0.510662449057925,-8.5,11.));
#402=CARTESIAN_POINT('Ctrl Pts',(1.05009892728332,-8.44969256939796,10.8963150371534));
#403=CARTESIAN_POINT('Ctrl Pts',(2.03353418176194,-8.26829794527814,10.4855009215929));
#404=CARTESIAN_POINT('Ctrl Pts',(2.47807547728031,-8.13923656056867,10.1787787722121));
#405=CARTESIAN_POINT('Ctrl Pts',(3.17950597965918,-7.89172637534918,9.4773482698332));
#406=CARTESIAN_POINT('Ctrl Pts',(3.48568850685861,-7.75576304808049,9.03306221223147));
#407=CARTESIAN_POINT('Ctrl Pts',(3.89607388117928,-7.55794271005211,8.05069913498408));
#408=CARTESIAN_POINT('Ctrl Pts',(4.,-7.5,7.51172240564325));
#409=CARTESIAN_POINT('Ctrl Pts',(4.,-7.5,7.));
#410=CARTESIAN_POINT('Ctrl Pts',(4.,-7.5,6.48827759435675));
#411=CARTESIAN_POINT('Ctrl Pts',(3.89607388117928,-7.55794271005211,5.94930086501592));
#412=CARTESIAN_POINT('Ctrl Pts',(3.48568850685861,-7.75576304808049,4.96693778776853));
#413=CARTESIAN_POINT('Ctrl Pts',(3.17950597965918,-7.89172637534918,4.5226517301668));
#414=CARTESIAN_POINT('Ctrl Pts',(2.47807547728031,-8.13923656056867,3.82122122778792));
#415=CARTESIAN_POINT('Ctrl Pts',(2.03353418176194,-8.26829794527814,3.51449907840713));
#416=CARTESIAN_POINT('Ctrl Pts',(1.05009892728332,-8.44969256939796,3.10368496284665));
#417=CARTESIAN_POINT('Ctrl Pts',(0.510662449057925,-8.5,3.));
#418=CARTESIAN_POINT('Ctrl Pts',(-5.20417042793042E-16,-8.5,3.));
#419=CARTESIAN_POINT('Origin',(0.,-3.5,7.));
#420=CARTESIAN_POINT('',(-7.9602041944578E-16,-3.5,0.499999999999998));
#421=CARTESIAN_POINT('Origin',(0.,-3.5,7.));
#422=CARTESIAN_POINT('',(3.64475402750897E-14,8.50000000000031,0.4999999999996));
#423=CARTESIAN_POINT('',(-7.9602041944578E-16,-3.5,0.499999999999998));
#424=CARTESIAN_POINT('Ctrl Pts',(6.5,5.47722557505166,7.));
#425=CARTESIAN_POINT('Ctrl Pts',(6.5,5.47722557505166,7.43853558414196));
#426=CARTESIAN_POINT('Ctrl Pts',(6.4552265474002,5.53149662326432,7.87736544769308));
#427=CARTESIAN_POINT('Ctrl Pts',(6.2804525946613,5.72916396084265,8.73079037404377));
#428=CARTESIAN_POINT('Ctrl Pts',(6.15054648806214,5.8716363904278,9.1456184804831));
#429=CARTESIAN_POINT('Ctrl Pts',(5.64932029489317,6.36839924024578,10.3266803003198));
#430=CARTESIAN_POINT('Ctrl Pts',(5.16079022786599,6.78724754561301,11.0315979275591));
#431=CARTESIAN_POINT('Ctrl Pts',(4.04491126141284,7.50454417457531,12.1474768940123));
#432=CARTESIAN_POINT('Ctrl Pts',(3.33871410488484,7.86130164032956,12.6437863437965));
#433=CARTESIAN_POINT('Ctrl Pts',(1.74531257407272,8.36067951881528,13.3208562638058));
#434=CARTESIAN_POINT('Ctrl Pts',(0.856389586814313,8.5,13.5));
#435=CARTESIAN_POINT('Ctrl Pts',(-0.856389586814313,8.5,13.5));
#436=CARTESIAN_POINT('Ctrl Pts',(-1.74531257407272,8.36067951881528,13.3208562638058));
#437=CARTESIAN_POINT('Ctrl Pts',(-3.33871410488484,7.86130164032956,12.6437863437965));
#438=CARTESIAN_POINT('Ctrl Pts',(-4.04491126141284,7.50454417457531,12.1474768940123));
#439=CARTESIAN_POINT('Ctrl Pts',(-5.16079022786599,6.78724754561301,11.0315979275591));
#440=CARTESIAN_POINT('Ctrl Pts',(-5.64932029489317,6.36839924024578,10.3266803003198));
#441=CARTESIAN_POINT('Ctrl Pts',(-6.15054648806214,5.8716363904278,9.1456184804831));
#442=CARTESIAN_POINT('Ctrl Pts',(-6.2804525946613,5.72916396084265,8.73079037404377));
#443=CARTESIAN_POINT('Ctrl Pts',(-6.4552265474002,5.53149662326432,7.87736544769308));
#444=CARTESIAN_POINT('Ctrl Pts',(-6.5,5.47722557505166,7.43853558414196));
#445=CARTESIAN_POINT('Ctrl Pts',(-6.5,5.47722557505166,6.56146441585804));
#446=CARTESIAN_POINT('Ctrl Pts',(-6.4552265474002,5.53149662326432,6.12263455230692));
#447=CARTESIAN_POINT('Ctrl Pts',(-6.2804525946613,5.72916396084265,5.26920962595623));
#448=CARTESIAN_POINT('Ctrl Pts',(-6.15054648806214,5.8716363904278,4.8543815195169));
#449=CARTESIAN_POINT('Ctrl Pts',(-5.64932029489317,6.36839924024578,3.67331969968023));
#450=CARTESIAN_POINT('Ctrl Pts',(-5.16079022786599,6.78724754561301,2.96840207244087));
#451=CARTESIAN_POINT('Ctrl Pts',(-4.04491126141284,7.50454417457531,1.85252310598772));
#452=CARTESIAN_POINT('Ctrl Pts',(-3.33871410488484,7.86130164032956,1.35621365620353));
#453=CARTESIAN_POINT('Ctrl Pts',(-1.74531257407272,8.36067951881528,0.679143736194166));
#454=CARTESIAN_POINT('Ctrl Pts',(-0.856389586814314,8.5,0.499999999999998));
#455=CARTESIAN_POINT('Ctrl Pts',(0.856389586814312,8.5,0.499999999999998));
#456=CARTESIAN_POINT('Ctrl Pts',(1.74531257407271,8.36067951881528,0.679143736194166));
#457=CARTESIAN_POINT('Ctrl Pts',(3.33871410488484,7.86130164032956,1.35621365620353));
#458=CARTESIAN_POINT('Ctrl Pts',(4.04491126141284,7.50454417457531,1.85252310598772));
#459=CARTESIAN_POINT('Ctrl Pts',(5.16079022786599,6.78724754561301,2.96840207244087));
#460=CARTESIAN_POINT('Ctrl Pts',(5.64932029489317,6.36839924024578,3.67331969968023));
#461=CARTESIAN_POINT('Ctrl Pts',(6.15054648806214,5.8716363904278,4.8543815195169));
#462=CARTESIAN_POINT('Ctrl Pts',(6.2804525946613,5.72916396084265,5.26920962595623));
#463=CARTESIAN_POINT('Ctrl Pts',(6.4552265474002,5.53149662326432,6.12263455230692));
#464=CARTESIAN_POINT('Ctrl Pts',(6.5,5.47722557505166,6.56146441585804));
#465=CARTESIAN_POINT('Ctrl Pts',(6.5,5.47722557505166,7.));
#466=CARTESIAN_POINT('Origin',(0.,0.,14.));
#467=CARTESIAN_POINT('',(8.5,-1.04094977927525E-15,0.));
#468=CARTESIAN_POINT('Origin',(0.,0.,0.));
#469=CARTESIAN_POINT('',(8.5,-1.04094977927525E-15,14.));
#470=CARTESIAN_POINT('',(8.5,-1.04094977927525E-15,14.));
#471=CARTESIAN_POINT('',(6.,-6.02079728939615,14.));
#472=CARTESIAN_POINT('Origin',(0.,0.,14.));
#473=CARTESIAN_POINT('',(6.,-6.02079728939615,13.));
#474=CARTESIAN_POINT('',(6.,-6.02079728939615,14.));
#475=CARTESIAN_POINT('',(5.,-6.87386354240971,13.));
#476=CARTESIAN_POINT('Origin',(0.,0.,13.));
#477=CARTESIAN_POINT('',(5.,-6.87386354243376,11.));
#478=CARTESIAN_POINT('',(5.,-6.87386354243376,14.));
#479=CARTESIAN_POINT('Origin',(0.,0.,11.));
#480=CARTESIAN_POINT('',(-5.,-6.87386354240971,11.));
#481=CARTESIAN_POINT('Origin',(0.,0.,11.));
#482=CARTESIAN_POINT('',(-5.,-6.87386354243376,13.));
#483=CARTESIAN_POINT('',(-5.,-6.87386354243376,14.));
#484=CARTESIAN_POINT('',(-6.,-6.02079728939615,13.));
#485=CARTESIAN_POINT('Origin',(0.,0.,13.));
#486=CARTESIAN_POINT('',(-6.,-6.02079728939615,14.));
#487=CARTESIAN_POINT('',(-6.,-6.02079728939615,14.));
#488=CARTESIAN_POINT('Origin',(0.,0.,14.));
#489=CARTESIAN_POINT('Origin',(0.,0.,14.));
#490=CARTESIAN_POINT('',(-6.,-22.,14.));
#491=CARTESIAN_POINT('',(-6.,500000.,14.));
#492=CARTESIAN_POINT('',(6.,-22.,14.));
#493=CARTESIAN_POINT('',(-6.,-22.,14.));
#494=CARTESIAN_POINT('',(6.,500000.,14.));
#495=CARTESIAN_POINT('Origin',(0.,0.,0.));
#496=CARTESIAN_POINT('Origin',(0.,-3.5,7.));
#497=CARTESIAN_POINT('Origin',(-6.,500000.,13.));
#498=CARTESIAN_POINT('',(-5.,-22.,13.));
#499=CARTESIAN_POINT('',(-5.,500000.,13.));
#500=CARTESIAN_POINT('',(-6.,-22.,13.));
#501=CARTESIAN_POINT('',(-6.,-22.,13.));
#502=CARTESIAN_POINT('',(-6.,500000.,13.));
#503=CARTESIAN_POINT('Origin',(-5.,500000.,13.));
#504=CARTESIAN_POINT('',(-5.,-22.,11.));
#505=CARTESIAN_POINT('',(-5.,500000.,11.));
#506=CARTESIAN_POINT('',(-5.,-22.,13.));
#507=CARTESIAN_POINT('Origin',(-6.,-22.,13.));
#508=CARTESIAN_POINT('',(-6.,-22.,14.));
#509=CARTESIAN_POINT('',(5.,-22.,11.));
#510=CARTESIAN_POINT('',(-5.,-22.,11.));
#511=CARTESIAN_POINT('',(5.,-22.,13.));
#512=CARTESIAN_POINT('',(5.,-22.,13.));
#513=CARTESIAN_POINT('',(6.,-22.,13.));
#514=CARTESIAN_POINT('',(5.,-22.,13.));
#515=CARTESIAN_POINT('',(6.,-22.,14.));
#516=CARTESIAN_POINT('Origin',(-6.,500000.,14.));
#517=CARTESIAN_POINT('Origin',(-5.,500000.,11.));
#518=CARTESIAN_POINT('',(5.,500000.,11.));
#519=CARTESIAN_POINT('Origin',(5.,500000.,13.));
#520=CARTESIAN_POINT('',(5.,500000.,13.));
#521=CARTESIAN_POINT('Origin',(5.,500000.,13.));
#522=CARTESIAN_POINT('',(6.,500000.,13.));
#523=CARTESIAN_POINT('Origin',(6.,500000.,14.));
#524=UNCERTAINTY_MEASURE_WITH_UNIT(LENGTH_MEASURE(0.01),#528,
'DISTANCE_ACCURACY_VALUE',
'Maximum model space distance between geometric entities at asserted c
onnectivities');
#525=UNCERTAINTY_MEASURE_WITH_UNIT(LENGTH_MEASURE(0.01),#528,
'DISTANCE_ACCURACY_VALUE',
'Maximum model space distance between geometric entities at asserted c
onnectivities');
#526=(
GEOMETRIC_REPRESENTATION_CONTEXT(3)
GLOBAL_UNCERTAINTY_ASSIGNED_CONTEXT((#524))
GLOBAL_UNIT_ASSIGNED_CONTEXT((#528,#530,#531))
REPRESENTATION_CONTEXT('','3D')
);
#527=(
GEOMETRIC_REPRESENTATION_CONTEXT(3)
GLOBAL_UNCERTAINTY_ASSIGNED_CONTEXT((#525))
GLOBAL_UNIT_ASSIGNED_CONTEXT((#528,#530,#531))
REPRESENTATION_CONTEXT('','3D')
);
#528=(
LENGTH_UNIT()
NAMED_UNIT(*)
SI_UNIT(.MILLI.,.METRE.)
);
#529=(
LENGTH_UNIT()
NAMED_UNIT(*)
SI_UNIT(.CENTI.,.METRE.)
);
#530=(
NAMED_UNIT(*)
PLANE_ANGLE_UNIT()
SI_UNIT($,.RADIAN.)
);
#531=(
NAMED_UNIT(*)
SI_UNIT($,.STERADIAN.)
SOLID_ANGLE_UNIT()
);
#532=SHAPE_DEFINITION_REPRESENTATION(#533,#534);
#533=PRODUCT_DEFINITION_SHAPE('',$,#536);
#534=SHAPE_REPRESENTATION('',(#280),#526);
#535=PRODUCT_DEFINITION_CONTEXT('part definition',#540,'design');
#536=PRODUCT_DEFINITION('PCB00-10','PCB00-10',#537,#535);
#537=PRODUCT_DEFINITION_FORMATION('A00',$,#542);
#538=PRODUCT_RELATED_PRODUCT_CATEGORY('PCB00-10','PCB00-10',(#542));
#539=APPLICATION_PROTOCOL_DEFINITION('international standard',
'automotive_design',2009,#540);
#540=APPLICATION_CONTEXT(
'Core Data for Automotive Mechanical Design Process');
#541=PRODUCT_CONTEXT('part definition',#540,'mechanical');
#542=PRODUCT('PCB00-10','PCB00-10',
'Connessione laterale serie 40-45-50-60',(#541));
#543=PRESENTATION_STYLE_ASSIGNMENT((#544));
#544=SURFACE_STYLE_USAGE(.BOTH.,#547);
#545=SURFACE_STYLE_RENDERING_WITH_PROPERTIES($,#551,(#546));
#546=SURFACE_STYLE_TRANSPARENT(0.);
#547=SURFACE_SIDE_STYLE('',(#548,#545));
#548=SURFACE_STYLE_FILL_AREA(#549);
#549=FILL_AREA_STYLE('',(#550));
#550=FILL_AREA_STYLE_COLOUR('',#551);
#551=COLOUR_RGB('',0.647058823529412,0.67843137254902,0.694117647058824);
ENDSEC;
END-ISO-10303-21;
