ISO-10303-21;
HEADER;
/* Generated by software containing ST-Developer
 * from STEP Tools, Inc. (www.steptools.com) 
 */

FILE_DESCRIPTION(
/* description */ ('Inserto fil. con molla mont. front. M8'),
/* implementation_level */ '2;1');

FILE_NAME(
/* name */ 'C:\\Users\\Stefan.Nesic\\Desktop\\111Mattia\\N35-08-M8.stp',

/* time_stamp */ '2023-06-06T09:57:50+02:00',
/* author */ ('stefan.nesic'),
/* organization */ (''),
/* preprocessor_version */ 'ST-DEVELOPER v18.1',
/* originating_system */ 'Autodesk Inventor 2021',
/* authorisation */ '');

FILE_SCHEMA (('CONFIG_CONTROL_DESIGN'));
ENDSEC;

DATA;
#10=MECHANICAL_DESIGN_GEOMETRIC_PRESENTATION_REPRESENTATION('',(#13),#530);
#11=SHAPE_REPRESENTATION_RELATIONSHIP('SRR','None',#537,#12);
#12=ADVANCED_BREP_SHAPE_REPRESENTATION('',(#14),#529);
#13=STYLED_ITEM('',(#546),#14);
#14=MANIFOLD_SOLID_BREP('Solido1',#299);
#15=FACE_BOUND('',#123,.T.);
#16=FACE_BOUND('',#129,.T.);
#17=FACE_BOUND('',#130,.T.);
#18=PLANE('',#325);
#19=PLANE('',#329);
#20=PLANE('',#330);
#21=PLANE('',#331);
#22=PLANE('',#332);
#23=PLANE('',#333);
#24=PLANE('',#334);
#25=PLANE('',#335);
#26=PLANE('',#336);
#27=PLANE('',#337);
#28=PLANE('',#338);
#29=PLANE('',#339);
#30=PLANE('',#340);
#31=LINE('',#456,#63);
#32=LINE('',#463,#64);
#33=LINE('',#468,#65);
#34=LINE('',#470,#66);
#35=LINE('',#472,#67);
#36=LINE('',#474,#68);
#37=LINE('',#476,#69);
#38=LINE('',#478,#70);
#39=LINE('',#480,#71);
#40=LINE('',#482,#72);
#41=LINE('',#484,#73);
#42=LINE('',#485,#74);
#43=LINE('',#488,#75);
#44=LINE('',#490,#76);
#45=LINE('',#491,#77);
#46=LINE('',#494,#78);
#47=LINE('',#495,#79);
#48=LINE('',#498,#80);
#49=LINE('',#499,#81);
#50=LINE('',#502,#82);
#51=LINE('',#503,#83);
#52=LINE('',#506,#84);
#53=LINE('',#507,#85);
#54=LINE('',#510,#86);
#55=LINE('',#511,#87);
#56=LINE('',#514,#88);
#57=LINE('',#515,#89);
#58=LINE('',#518,#90);
#59=LINE('',#519,#91);
#60=LINE('',#522,#92);
#61=LINE('',#523,#93);
#62=LINE('',#525,#94);
#63=VECTOR('',#353,2.25);
#64=VECTOR('',#362,3.3235);
#65=VECTOR('',#367,10.);
#66=VECTOR('',#368,10.);
#67=VECTOR('',#369,10.);
#68=VECTOR('',#370,10.);
#69=VECTOR('',#371,10.);
#70=VECTOR('',#372,10.);
#71=VECTOR('',#373,10.);
#72=VECTOR('',#374,10.);
#73=VECTOR('',#375,10.);
#74=VECTOR('',#376,10.);
#75=VECTOR('',#379,10.);
#76=VECTOR('',#380,10.);
#77=VECTOR('',#381,10.);
#78=VECTOR('',#384,10.);
#79=VECTOR('',#385,10.);
#80=VECTOR('',#388,10.);
#81=VECTOR('',#389,10.);
#82=VECTOR('',#392,10.);
#83=VECTOR('',#393,10.);
#84=VECTOR('',#396,10.);
#85=VECTOR('',#397,10.);
#86=VECTOR('',#400,10.);
#87=VECTOR('',#401,10.);
#88=VECTOR('',#404,10.);
#89=VECTOR('',#405,10.);
#90=VECTOR('',#408,10.);
#91=VECTOR('',#409,10.);
#92=VECTOR('',#412,10.);
#93=VECTOR('',#413,10.);
#94=VECTOR('',#416,10.);
#95=CYLINDRICAL_SURFACE('',#323,2.25);
#96=CYLINDRICAL_SURFACE('',#326,3.3235);
#97=FACE_OUTER_BOUND('',#113,.T.);
#98=FACE_OUTER_BOUND('',#114,.T.);
#99=FACE_OUTER_BOUND('',#115,.T.);
#100=FACE_OUTER_BOUND('',#116,.T.);
#101=FACE_OUTER_BOUND('',#117,.T.);
#102=FACE_OUTER_BOUND('',#118,.T.);
#103=FACE_OUTER_BOUND('',#119,.T.);
#104=FACE_OUTER_BOUND('',#120,.T.);
#105=FACE_OUTER_BOUND('',#121,.T.);
#106=FACE_OUTER_BOUND('',#122,.T.);
#107=FACE_OUTER_BOUND('',#124,.T.);
#108=FACE_OUTER_BOUND('',#125,.T.);
#109=FACE_OUTER_BOUND('',#126,.T.);
#110=FACE_OUTER_BOUND('',#127,.T.);
#111=FACE_OUTER_BOUND('',#128,.T.);
#112=FACE_OUTER_BOUND('',#131,.T.);
#113=EDGE_LOOP('',(#204,#205,#206,#207,#208));
#114=EDGE_LOOP('',(#209,#210,#211,#212,#213));
#115=EDGE_LOOP('',(#214));
#116=EDGE_LOOP('',(#215,#216,#217,#218));
#117=EDGE_LOOP('',(#219,#220,#221,#222,#223,#224,#225,#226,#227,#228));
#118=EDGE_LOOP('',(#229,#230,#231,#232));
#119=EDGE_LOOP('',(#233,#234,#235,#236));
#120=EDGE_LOOP('',(#237,#238,#239,#240));
#121=EDGE_LOOP('',(#241,#242,#243,#244));
#122=EDGE_LOOP('',(#245,#246,#247,#248));
#123=EDGE_LOOP('',(#249));
#124=EDGE_LOOP('',(#250,#251,#252,#253));
#125=EDGE_LOOP('',(#254,#255,#256,#257));
#126=EDGE_LOOP('',(#258,#259,#260,#261));
#127=EDGE_LOOP('',(#262,#263,#264,#265));
#128=EDGE_LOOP('',(#266,#267,#268,#269));
#129=EDGE_LOOP('',(#270));
#130=EDGE_LOOP('',(#271));
#131=EDGE_LOOP('',(#272,#273,#274,#275,#276,#277,#278,#279,#280,#281));
#132=CIRCLE('',#319,0.0100000000000003);
#133=CIRCLE('',#320,2.24);
#134=CIRCLE('',#321,2.25);
#135=CIRCLE('',#322,2.25);
#136=CIRCLE('',#324,2.25);
#137=CIRCLE('',#327,3.3235);
#138=CIRCLE('',#328,3.3235);
#139=VERTEX_POINT('',#447);
#140=VERTEX_POINT('',#449);
#141=VERTEX_POINT('',#451);
#142=VERTEX_POINT('',#455);
#143=VERTEX_POINT('',#460);
#144=VERTEX_POINT('',#462);
#145=VERTEX_POINT('',#466);
#146=VERTEX_POINT('',#467);
#147=VERTEX_POINT('',#469);
#148=VERTEX_POINT('',#471);
#149=VERTEX_POINT('',#473);
#150=VERTEX_POINT('',#475);
#151=VERTEX_POINT('',#477);
#152=VERTEX_POINT('',#479);
#153=VERTEX_POINT('',#481);
#154=VERTEX_POINT('',#483);
#155=VERTEX_POINT('',#487);
#156=VERTEX_POINT('',#489);
#157=VERTEX_POINT('',#493);
#158=VERTEX_POINT('',#497);
#159=VERTEX_POINT('',#501);
#160=VERTEX_POINT('',#505);
#161=VERTEX_POINT('',#509);
#162=VERTEX_POINT('',#513);
#163=VERTEX_POINT('',#517);
#164=VERTEX_POINT('',#521);
#165=EDGE_CURVE('',#139,#139,#132,.T.);
#166=EDGE_CURVE('',#139,#140,#133,.T.);
#167=EDGE_CURVE('',#140,#141,#134,.T.);
#168=EDGE_CURVE('',#141,#140,#135,.T.);
#169=EDGE_CURVE('',#141,#142,#31,.T.);
#170=EDGE_CURVE('',#142,#142,#136,.T.);
#171=EDGE_CURVE('',#143,#143,#137,.T.);
#172=EDGE_CURVE('',#143,#144,#32,.T.);
#173=EDGE_CURVE('',#144,#144,#138,.T.);
#174=EDGE_CURVE('',#145,#146,#33,.T.);
#175=EDGE_CURVE('',#146,#147,#34,.T.);
#176=EDGE_CURVE('',#147,#148,#35,.T.);
#177=EDGE_CURVE('',#148,#149,#36,.T.);
#178=EDGE_CURVE('',#149,#150,#37,.T.);
#179=EDGE_CURVE('',#150,#151,#38,.T.);
#180=EDGE_CURVE('',#151,#152,#39,.T.);
#181=EDGE_CURVE('',#152,#153,#40,.T.);
#182=EDGE_CURVE('',#153,#154,#41,.T.);
#183=EDGE_CURVE('',#154,#145,#42,.T.);
#184=EDGE_CURVE('',#155,#146,#43,.T.);
#185=EDGE_CURVE('',#156,#155,#44,.T.);
#186=EDGE_CURVE('',#147,#156,#45,.T.);
#187=EDGE_CURVE('',#157,#156,#46,.T.);
#188=EDGE_CURVE('',#148,#157,#47,.T.);
#189=EDGE_CURVE('',#158,#157,#48,.T.);
#190=EDGE_CURVE('',#149,#158,#49,.T.);
#191=EDGE_CURVE('',#159,#158,#50,.T.);
#192=EDGE_CURVE('',#150,#159,#51,.T.);
#193=EDGE_CURVE('',#160,#159,#52,.T.);
#194=EDGE_CURVE('',#151,#160,#53,.T.);
#195=EDGE_CURVE('',#161,#160,#54,.T.);
#196=EDGE_CURVE('',#152,#161,#55,.T.);
#197=EDGE_CURVE('',#162,#161,#56,.T.);
#198=EDGE_CURVE('',#153,#162,#57,.T.);
#199=EDGE_CURVE('',#163,#162,#58,.T.);
#200=EDGE_CURVE('',#154,#163,#59,.T.);
#201=EDGE_CURVE('',#164,#163,#60,.T.);
#202=EDGE_CURVE('',#145,#164,#61,.T.);
#203=EDGE_CURVE('',#155,#164,#62,.T.);
#204=ORIENTED_EDGE('',*,*,#165,.T.);
#205=ORIENTED_EDGE('',*,*,#166,.T.);
#206=ORIENTED_EDGE('',*,*,#167,.T.);
#207=ORIENTED_EDGE('',*,*,#168,.T.);
#208=ORIENTED_EDGE('',*,*,#166,.F.);
#209=ORIENTED_EDGE('',*,*,#168,.F.);
#210=ORIENTED_EDGE('',*,*,#169,.T.);
#211=ORIENTED_EDGE('',*,*,#170,.F.);
#212=ORIENTED_EDGE('',*,*,#169,.F.);
#213=ORIENTED_EDGE('',*,*,#167,.F.);
#214=ORIENTED_EDGE('',*,*,#165,.F.);
#215=ORIENTED_EDGE('',*,*,#171,.F.);
#216=ORIENTED_EDGE('',*,*,#172,.T.);
#217=ORIENTED_EDGE('',*,*,#173,.F.);
#218=ORIENTED_EDGE('',*,*,#172,.F.);
#219=ORIENTED_EDGE('',*,*,#174,.T.);
#220=ORIENTED_EDGE('',*,*,#175,.T.);
#221=ORIENTED_EDGE('',*,*,#176,.T.);
#222=ORIENTED_EDGE('',*,*,#177,.T.);
#223=ORIENTED_EDGE('',*,*,#178,.T.);
#224=ORIENTED_EDGE('',*,*,#179,.T.);
#225=ORIENTED_EDGE('',*,*,#180,.T.);
#226=ORIENTED_EDGE('',*,*,#181,.T.);
#227=ORIENTED_EDGE('',*,*,#182,.T.);
#228=ORIENTED_EDGE('',*,*,#183,.T.);
#229=ORIENTED_EDGE('',*,*,#184,.F.);
#230=ORIENTED_EDGE('',*,*,#185,.F.);
#231=ORIENTED_EDGE('',*,*,#186,.F.);
#232=ORIENTED_EDGE('',*,*,#175,.F.);
#233=ORIENTED_EDGE('',*,*,#186,.T.);
#234=ORIENTED_EDGE('',*,*,#187,.F.);
#235=ORIENTED_EDGE('',*,*,#188,.F.);
#236=ORIENTED_EDGE('',*,*,#176,.F.);
#237=ORIENTED_EDGE('',*,*,#188,.T.);
#238=ORIENTED_EDGE('',*,*,#189,.F.);
#239=ORIENTED_EDGE('',*,*,#190,.F.);
#240=ORIENTED_EDGE('',*,*,#177,.F.);
#241=ORIENTED_EDGE('',*,*,#190,.T.);
#242=ORIENTED_EDGE('',*,*,#191,.F.);
#243=ORIENTED_EDGE('',*,*,#192,.F.);
#244=ORIENTED_EDGE('',*,*,#178,.F.);
#245=ORIENTED_EDGE('',*,*,#192,.T.);
#246=ORIENTED_EDGE('',*,*,#193,.F.);
#247=ORIENTED_EDGE('',*,*,#194,.F.);
#248=ORIENTED_EDGE('',*,*,#179,.F.);
#249=ORIENTED_EDGE('',*,*,#171,.T.);
#250=ORIENTED_EDGE('',*,*,#194,.T.);
#251=ORIENTED_EDGE('',*,*,#195,.F.);
#252=ORIENTED_EDGE('',*,*,#196,.F.);
#253=ORIENTED_EDGE('',*,*,#180,.F.);
#254=ORIENTED_EDGE('',*,*,#196,.T.);
#255=ORIENTED_EDGE('',*,*,#197,.F.);
#256=ORIENTED_EDGE('',*,*,#198,.F.);
#257=ORIENTED_EDGE('',*,*,#181,.F.);
#258=ORIENTED_EDGE('',*,*,#198,.T.);
#259=ORIENTED_EDGE('',*,*,#199,.F.);
#260=ORIENTED_EDGE('',*,*,#200,.F.);
#261=ORIENTED_EDGE('',*,*,#182,.F.);
#262=ORIENTED_EDGE('',*,*,#200,.T.);
#263=ORIENTED_EDGE('',*,*,#201,.F.);
#264=ORIENTED_EDGE('',*,*,#202,.F.);
#265=ORIENTED_EDGE('',*,*,#183,.F.);
#266=ORIENTED_EDGE('',*,*,#202,.T.);
#267=ORIENTED_EDGE('',*,*,#203,.F.);
#268=ORIENTED_EDGE('',*,*,#184,.T.);
#269=ORIENTED_EDGE('',*,*,#174,.F.);
#270=ORIENTED_EDGE('',*,*,#170,.T.);
#271=ORIENTED_EDGE('',*,*,#173,.T.);
#272=ORIENTED_EDGE('',*,*,#203,.T.);
#273=ORIENTED_EDGE('',*,*,#201,.T.);
#274=ORIENTED_EDGE('',*,*,#199,.T.);
#275=ORIENTED_EDGE('',*,*,#197,.T.);
#276=ORIENTED_EDGE('',*,*,#195,.T.);
#277=ORIENTED_EDGE('',*,*,#193,.T.);
#278=ORIENTED_EDGE('',*,*,#191,.T.);
#279=ORIENTED_EDGE('',*,*,#189,.T.);
#280=ORIENTED_EDGE('',*,*,#187,.T.);
#281=ORIENTED_EDGE('',*,*,#185,.T.);
#282=(
BOUNDED_SURFACE()
B_SPLINE_SURFACE(2,2,((#420,#421,#422,#423,#424,#425,#426,#427,#428),(#429,
#430,#431,#432,#433,#434,#435,#436,#437),(#438,#439,#440,#441,#442,#443,
#444,#445,#446)),.UNSPECIFIED.,.F.,.T.,.F.)
B_SPLINE_SURFACE_WITH_KNOTS((3,3),(3,2,2,2,3),(-2.39922793666788E-18,1.5707963267949),
(-3.14159265358979,-1.5707963267949,0.,1.5707963267949,3.14159265358979),
 .UNSPECIFIED.)
GEOMETRIC_REPRESENTATION_ITEM()
RATIONAL_B_SPLINE_SURFACE(((1.,0.707106781186548,1.,0.707106781186548,1.,
0.707106781186548,1.,0.707106781186548,1.),(0.707106781186547,0.499999999999999,
0.707106781186547,0.499999999999999,0.707106781186547,0.499999999999999,
0.707106781186547,0.499999999999999,0.707106781186547),(1.,0.707106781186548,
1.,0.707106781186548,1.,0.707106781186548,1.,0.707106781186548,1.)))
REPRESENTATION_ITEM('')
SURFACE()
);
#283=ADVANCED_FACE('',(#97),#282,.F.);
#284=ADVANCED_FACE('',(#98),#95,.T.);
#285=ADVANCED_FACE('',(#99),#18,.T.);
#286=ADVANCED_FACE('',(#100),#96,.F.);
#287=ADVANCED_FACE('',(#101),#19,.T.);
#288=ADVANCED_FACE('',(#102),#20,.T.);
#289=ADVANCED_FACE('',(#103),#21,.T.);
#290=ADVANCED_FACE('',(#104),#22,.T.);
#291=ADVANCED_FACE('',(#105),#23,.T.);
#292=ADVANCED_FACE('',(#106,#15),#24,.T.);
#293=ADVANCED_FACE('',(#107),#25,.T.);
#294=ADVANCED_FACE('',(#108),#26,.T.);
#295=ADVANCED_FACE('',(#109),#27,.T.);
#296=ADVANCED_FACE('',(#110),#28,.T.);
#297=ADVANCED_FACE('',(#111,#16,#17),#29,.T.);
#298=ADVANCED_FACE('',(#112),#30,.T.);
#299=CLOSED_SHELL('',(#283,#284,#285,#286,#287,#288,#289,#290,#291,#292,
#293,#294,#295,#296,#297,#298));
#300=DERIVED_UNIT_ELEMENT(#302,1.);
#301=DERIVED_UNIT_ELEMENT(#532,-3.);
#302=(
MASS_UNIT()
NAMED_UNIT(*)
SI_UNIT($,.GRAM.)
);
#303=DERIVED_UNIT((#300,#301));
#304=MEASURE_REPRESENTATION_ITEM('density measure',
POSITIVE_RATIO_MEASURE(7.85),#303);
#305=PROPERTY_DEFINITION_REPRESENTATION(#310,#307);
#306=PROPERTY_DEFINITION_REPRESENTATION(#311,#308);
#307=REPRESENTATION('material name',(#309),#529);
#308=REPRESENTATION('density',(#304),#529);
#309=DESCRIPTIVE_REPRESENTATION_ITEM('Acciaio, Carbonio',
'Acciaio, Carbonio');
#310=PROPERTY_DEFINITION('material property','material name',#539);
#311=PROPERTY_DEFINITION('material property','density of part',#539);
#312=DATE_TIME_ROLE('creation_date');
#313=CC_DESIGN_DATE_AND_TIME_ASSIGNMENT(#314,#312,(#539));
#314=DATE_AND_TIME(#315,#316);
#315=CALENDAR_DATE(2023,27,5);
#316=LOCAL_TIME(0,0,0.,#317);
#317=COORDINATED_UNIVERSAL_TIME_OFFSET(0,0,.BEHIND.);
#318=AXIS2_PLACEMENT_3D('placement',#419,#341,#342);
#319=AXIS2_PLACEMENT_3D('',#448,#343,#344);
#320=AXIS2_PLACEMENT_3D('',#450,#345,#346);
#321=AXIS2_PLACEMENT_3D('',#452,#347,#348);
#322=AXIS2_PLACEMENT_3D('',#453,#349,#350);
#323=AXIS2_PLACEMENT_3D('',#454,#351,#352);
#324=AXIS2_PLACEMENT_3D('',#457,#354,#355);
#325=AXIS2_PLACEMENT_3D('',#458,#356,#357);
#326=AXIS2_PLACEMENT_3D('',#459,#358,#359);
#327=AXIS2_PLACEMENT_3D('',#461,#360,#361);
#328=AXIS2_PLACEMENT_3D('',#464,#363,#364);
#329=AXIS2_PLACEMENT_3D('',#465,#365,#366);
#330=AXIS2_PLACEMENT_3D('',#486,#377,#378);
#331=AXIS2_PLACEMENT_3D('',#492,#382,#383);
#332=AXIS2_PLACEMENT_3D('',#496,#386,#387);
#333=AXIS2_PLACEMENT_3D('',#500,#390,#391);
#334=AXIS2_PLACEMENT_3D('',#504,#394,#395);
#335=AXIS2_PLACEMENT_3D('',#508,#398,#399);
#336=AXIS2_PLACEMENT_3D('',#512,#402,#403);
#337=AXIS2_PLACEMENT_3D('',#516,#406,#407);
#338=AXIS2_PLACEMENT_3D('',#520,#410,#411);
#339=AXIS2_PLACEMENT_3D('',#524,#414,#415);
#340=AXIS2_PLACEMENT_3D('',#526,#417,#418);
#341=DIRECTION('axis',(0.,0.,1.));
#342=DIRECTION('refdir',(1.,0.,0.));
#343=DIRECTION('center_axis',(-2.44929359829471E-16,1.,0.));
#344=DIRECTION('ref_axis',(-1.,-2.44929359829471E-16,0.));
#345=DIRECTION('center_axis',(-1.,-2.44929359829471E-16,-1.22464679914735E-16));
#346=DIRECTION('ref_axis',(-1.22464679914735E-16,0.,1.));
#347=DIRECTION('center_axis',(2.44929359829471E-16,-1.,0.));
#348=DIRECTION('ref_axis',(-1.,-2.46716227694479E-16,0.));
#349=DIRECTION('center_axis',(2.44929359829471E-16,-1.,0.));
#350=DIRECTION('ref_axis',(-1.,-2.46716227694479E-16,0.));
#351=DIRECTION('center_axis',(2.46716227694479E-16,-1.,0.));
#352=DIRECTION('ref_axis',(1.,2.46716227694479E-16,0.));
#353=DIRECTION('',(-2.46716227694479E-16,1.,0.));
#354=DIRECTION('center_axis',(-2.44929359829471E-16,1.,0.));
#355=DIRECTION('ref_axis',(1.,2.46716227694479E-16,0.));
#356=DIRECTION('center_axis',(2.44929359829471E-16,-1.,0.));
#357=DIRECTION('ref_axis',(0.,0.,-1.));
#358=DIRECTION('center_axis',(-5.55111512312578E-16,1.,0.));
#359=DIRECTION('ref_axis',(1.,5.55111512312578E-16,0.));
#360=DIRECTION('center_axis',(5.55111512312578E-16,-1.,0.));
#361=DIRECTION('ref_axis',(1.,5.55111512312578E-16,0.));
#362=DIRECTION('',(5.55111512312578E-16,-1.,0.));
#363=DIRECTION('center_axis',(-2.44929359829471E-16,1.,0.));
#364=DIRECTION('ref_axis',(1.,5.55111512312578E-16,0.));
#365=DIRECTION('center_axis',(0.,0.,-1.));
#366=DIRECTION('ref_axis',(-1.,0.,0.));
#367=DIRECTION('',(-1.,-2.44929359829471E-16,0.));
#368=DIRECTION('',(-0.707106781186547,0.707106781186548,0.));
#369=DIRECTION('',(8.88178419700126E-16,1.,0.));
#370=DIRECTION('',(1.,-2.46716227694479E-16,0.));
#371=DIRECTION('',(1.85037170770859E-16,1.,0.));
#372=DIRECTION('',(1.,5.55111512312578E-16,0.));
#373=DIRECTION('',(1.85037170770859E-16,-1.,0.));
#374=DIRECTION('',(1.,4.93432455388958E-16,0.));
#375=DIRECTION('',(8.88178419700126E-16,-1.,0.));
#376=DIRECTION('',(-0.707106781186547,-0.707106781186548,0.));
#377=DIRECTION('center_axis',(-0.707106781186548,-0.707106781186547,0.));
#378=DIRECTION('ref_axis',(0.707106781186547,-0.707106781186548,0.));
#379=DIRECTION('',(0.,0.,-1.));
#380=DIRECTION('',(0.707106781186547,-0.707106781186548,0.));
#381=DIRECTION('',(0.,0.,1.));
#382=DIRECTION('center_axis',(-1.,8.88178419700126E-16,0.));
#383=DIRECTION('ref_axis',(-8.88178419700126E-16,-1.,0.));
#384=DIRECTION('',(-8.88178419700126E-16,-1.,0.));
#385=DIRECTION('',(0.,0.,1.));
#386=DIRECTION('center_axis',(2.46716227694479E-16,1.,0.));
#387=DIRECTION('ref_axis',(-1.,2.46716227694479E-16,0.));
#388=DIRECTION('',(-1.,2.46716227694479E-16,0.));
#389=DIRECTION('',(0.,0.,1.));
#390=DIRECTION('center_axis',(-1.,1.85037170770859E-16,0.));
#391=DIRECTION('ref_axis',(-1.85037170770859E-16,-1.,0.));
#392=DIRECTION('',(-1.85037170770859E-16,-1.,0.));
#393=DIRECTION('',(0.,0.,1.));
#394=DIRECTION('center_axis',(-5.55111512312578E-16,1.,0.));
#395=DIRECTION('ref_axis',(-1.,-5.55111512312578E-16,0.));
#396=DIRECTION('',(-1.,-5.55111512312578E-16,0.));
#397=DIRECTION('',(0.,0.,1.));
#398=DIRECTION('center_axis',(1.,1.85037170770859E-16,0.));
#399=DIRECTION('ref_axis',(-1.85037170770859E-16,1.,0.));
#400=DIRECTION('',(-1.85037170770859E-16,1.,0.));
#401=DIRECTION('',(0.,0.,1.));
#402=DIRECTION('center_axis',(-4.93432455388958E-16,1.,0.));
#403=DIRECTION('ref_axis',(-1.,-4.93432455388958E-16,0.));
#404=DIRECTION('',(-1.,-4.93432455388958E-16,0.));
#405=DIRECTION('',(0.,0.,1.));
#406=DIRECTION('center_axis',(1.,8.88178419700126E-16,0.));
#407=DIRECTION('ref_axis',(-8.88178419700126E-16,1.,0.));
#408=DIRECTION('',(-8.88178419700126E-16,1.,0.));
#409=DIRECTION('',(0.,0.,1.));
#410=DIRECTION('center_axis',(0.707106781186548,-0.707106781186547,0.));
#411=DIRECTION('ref_axis',(0.707106781186547,0.707106781186548,0.));
#412=DIRECTION('',(0.707106781186547,0.707106781186548,0.));
#413=DIRECTION('',(0.,0.,1.));
#414=DIRECTION('center_axis',(2.44929359829471E-16,-1.,0.));
#415=DIRECTION('ref_axis',(1.,2.44929359829471E-16,0.));
#416=DIRECTION('',(1.,2.44929359829471E-16,0.));
#417=DIRECTION('center_axis',(0.,0.,1.));
#418=DIRECTION('ref_axis',(1.,0.,0.));
#419=CARTESIAN_POINT('',(0.,0.,0.));
#420=CARTESIAN_POINT('Ctrl Pts',(2.46716227694473E-18,-0.00999999999999973,
-4.25));
#421=CARTESIAN_POINT('Ctrl Pts',(-2.25,-0.0100000000000003,-4.25));
#422=CARTESIAN_POINT('Ctrl Pts',(-2.25,-0.0100000000000003,-6.5));
#423=CARTESIAN_POINT('Ctrl Pts',(-2.25,-0.0100000000000003,-8.75));
#424=CARTESIAN_POINT('Ctrl Pts',(2.46716227694472E-18,-0.00999999999999973,
-8.75));
#425=CARTESIAN_POINT('Ctrl Pts',(2.25,-0.00999999999999918,-8.75));
#426=CARTESIAN_POINT('Ctrl Pts',(2.25,-0.00999999999999918,-6.5));
#427=CARTESIAN_POINT('Ctrl Pts',(2.25,-0.00999999999999918,-4.25));
#428=CARTESIAN_POINT('Ctrl Pts',(2.46716227694473E-18,-0.00999999999999973,
-4.25));
#429=CARTESIAN_POINT('Ctrl Pts',(5.51108928294959E-16,-2.25,-4.25));
#430=CARTESIAN_POINT('Ctrl Pts',(-2.25,-2.25,-4.25));
#431=CARTESIAN_POINT('Ctrl Pts',(-2.25,-2.25,-6.5));
#432=CARTESIAN_POINT('Ctrl Pts',(-2.25,-2.25,-8.75));
#433=CARTESIAN_POINT('Ctrl Pts',(5.51108928294959E-16,-2.25,-8.75));
#434=CARTESIAN_POINT('Ctrl Pts',(2.25,-2.25,-8.75));
#435=CARTESIAN_POINT('Ctrl Pts',(2.25,-2.25,-6.5));
#436=CARTESIAN_POINT('Ctrl Pts',(2.25,-2.25,-4.25));
#437=CARTESIAN_POINT('Ctrl Pts',(5.51108928294959E-16,-2.25,-4.25));
#438=CARTESIAN_POINT('Ctrl Pts',(5.51108928294959E-16,-2.25,-6.49));
#439=CARTESIAN_POINT('Ctrl Pts',(-0.00999999999999946,-2.25,-6.49));
#440=CARTESIAN_POINT('Ctrl Pts',(-0.00999999999999946,-2.25,-6.5));
#441=CARTESIAN_POINT('Ctrl Pts',(-0.00999999999999946,-2.25,-6.51));
#442=CARTESIAN_POINT('Ctrl Pts',(5.51108928294959E-16,-2.25,-6.51));
#443=CARTESIAN_POINT('Ctrl Pts',(0.0100000000000006,-2.25,-6.51));
#444=CARTESIAN_POINT('Ctrl Pts',(0.0100000000000006,-2.25,-6.5));
#445=CARTESIAN_POINT('Ctrl Pts',(0.0100000000000006,-2.25,-6.49));
#446=CARTESIAN_POINT('Ctrl Pts',(5.51108928294959E-16,-2.25,-6.49));
#447=CARTESIAN_POINT('',(5.49884281495812E-16,-2.25,-6.49));
#448=CARTESIAN_POINT('Origin',(5.51108928294959E-16,-2.25,-6.5));
#449=CARTESIAN_POINT('',(-2.7307836753121E-16,-0.00999999999999973,-4.25));
#450=CARTESIAN_POINT('Origin',(1.24251547779734E-18,-0.00999999999999973,
-6.49));
#451=CARTESIAN_POINT('',(-2.25,-0.0100000000000003,-6.5));
#452=CARTESIAN_POINT('Origin',(2.46716227694473E-18,-0.00999999999999973,
-6.5));
#453=CARTESIAN_POINT('Origin',(2.46716227694473E-18,-0.00999999999999973,
-6.5));
#454=CARTESIAN_POINT('Origin',(0.,0.,-6.5));
#455=CARTESIAN_POINT('',(-2.25,-5.4707060692004E-16,-6.5));
#456=CARTESIAN_POINT('',(-2.25,-5.55111512312578E-16,-6.5));
#457=CARTESIAN_POINT('Origin',(-1.98382184569533E-33,8.04090539253863E-18,
-6.5));
#458=CARTESIAN_POINT('Origin',(5.55111512312578E-16,-2.25,-6.5));
#459=CARTESIAN_POINT('Origin',(1.13137923388229E-14,-19.8811163845079,5.));
#460=CARTESIAN_POINT('',(-3.32350000000001,9.5,5.));
#461=CARTESIAN_POINT('Origin',(-4.99600361081321E-15,9.5,5.));
#462=CARTESIAN_POINT('',(-3.3235,3.75532938079459E-16,5.));
#463=CARTESIAN_POINT('',(-3.32349999999999,-19.8811163845079,5.));
#464=CARTESIAN_POINT('Origin',(2.77555756156287E-16,2.22044604925031E-15,
5.));
#465=CARTESIAN_POINT('Origin',(0.,4.75,-11.));
#466=CARTESIAN_POINT('',(4.5,0.,-11.));
#467=CARTESIAN_POINT('',(-4.5,-1.10218211923262E-15,-11.));
#468=CARTESIAN_POINT('',(-4.5,-1.10218211923262E-15,-11.));
#469=CARTESIAN_POINT('',(-8.5,4.,-11.));
#470=CARTESIAN_POINT('',(-8.5,4.,-11.));
#471=CARTESIAN_POINT('',(-8.5,6.5,-11.));
#472=CARTESIAN_POINT('',(-8.5,6.5,-11.));
#473=CARTESIAN_POINT('',(-4.,6.5,-11.));
#474=CARTESIAN_POINT('',(-4.,6.5,-11.));
#475=CARTESIAN_POINT('',(-4.,9.5,-11.));
#476=CARTESIAN_POINT('',(-4.,9.5,-11.));
#477=CARTESIAN_POINT('',(4.,9.5,-11.));
#478=CARTESIAN_POINT('',(4.,9.5,-11.));
#479=CARTESIAN_POINT('',(4.,6.5,-11.));
#480=CARTESIAN_POINT('',(4.,6.5,-11.));
#481=CARTESIAN_POINT('',(8.5,6.5,-11.));
#482=CARTESIAN_POINT('',(8.5,6.5,-11.));
#483=CARTESIAN_POINT('',(8.5,4.,-11.));
#484=CARTESIAN_POINT('',(8.5,4.,-11.));
#485=CARTESIAN_POINT('',(4.5,0.,-11.));
#486=CARTESIAN_POINT('Origin',(-8.5,4.,0.));
#487=CARTESIAN_POINT('',(-4.5,-1.10218211923262E-15,11.));
#488=CARTESIAN_POINT('',(-4.5,-1.10218211923262E-15,0.));
#489=CARTESIAN_POINT('',(-8.5,4.,11.));
#490=CARTESIAN_POINT('',(-8.5,4.,11.));
#491=CARTESIAN_POINT('',(-8.5,4.,0.));
#492=CARTESIAN_POINT('Origin',(-8.5,6.5,0.));
#493=CARTESIAN_POINT('',(-8.5,6.5,11.));
#494=CARTESIAN_POINT('',(-8.5,6.5,11.));
#495=CARTESIAN_POINT('',(-8.5,6.5,0.));
#496=CARTESIAN_POINT('Origin',(-4.,6.5,0.));
#497=CARTESIAN_POINT('',(-4.,6.5,11.));
#498=CARTESIAN_POINT('',(-4.,6.5,11.));
#499=CARTESIAN_POINT('',(-4.,6.5,0.));
#500=CARTESIAN_POINT('Origin',(-4.,9.5,0.));
#501=CARTESIAN_POINT('',(-4.,9.5,11.));
#502=CARTESIAN_POINT('',(-4.,9.5,11.));
#503=CARTESIAN_POINT('',(-4.,9.5,0.));
#504=CARTESIAN_POINT('Origin',(4.,9.5,0.));
#505=CARTESIAN_POINT('',(4.,9.5,11.));
#506=CARTESIAN_POINT('',(4.,9.5,11.));
#507=CARTESIAN_POINT('',(4.,9.5,0.));
#508=CARTESIAN_POINT('Origin',(4.,6.5,0.));
#509=CARTESIAN_POINT('',(4.,6.5,11.));
#510=CARTESIAN_POINT('',(4.,6.5,11.));
#511=CARTESIAN_POINT('',(4.,6.5,0.));
#512=CARTESIAN_POINT('Origin',(8.5,6.5,0.));
#513=CARTESIAN_POINT('',(8.5,6.5,11.));
#514=CARTESIAN_POINT('',(8.5,6.5,11.));
#515=CARTESIAN_POINT('',(8.5,6.5,0.));
#516=CARTESIAN_POINT('Origin',(8.5,4.,0.));
#517=CARTESIAN_POINT('',(8.5,4.,11.));
#518=CARTESIAN_POINT('',(8.5,4.,11.));
#519=CARTESIAN_POINT('',(8.5,4.,0.));
#520=CARTESIAN_POINT('Origin',(4.5,0.,0.));
#521=CARTESIAN_POINT('',(4.5,0.,11.));
#522=CARTESIAN_POINT('',(4.5,0.,11.));
#523=CARTESIAN_POINT('',(4.5,0.,0.));
#524=CARTESIAN_POINT('Origin',(-4.5,-1.10218211923262E-15,0.));
#525=CARTESIAN_POINT('',(-4.5,-1.10218211923262E-15,11.));
#526=CARTESIAN_POINT('Origin',(0.,4.75,11.));
#527=UNCERTAINTY_MEASURE_WITH_UNIT(LENGTH_MEASURE(0.01),#531,
'DISTANCE_ACCURACY_VALUE',
'Maximum model space distance between geometric entities at asserted c
onnectivities');
#528=UNCERTAINTY_MEASURE_WITH_UNIT(LENGTH_MEASURE(0.01),#531,
'DISTANCE_ACCURACY_VALUE',
'Maximum model space distance between geometric entities at asserted c
onnectivities');
#529=(
GEOMETRIC_REPRESENTATION_CONTEXT(3)
GLOBAL_UNCERTAINTY_ASSIGNED_CONTEXT((#527))
GLOBAL_UNIT_ASSIGNED_CONTEXT((#531,#533,#534))
REPRESENTATION_CONTEXT('','3D')
);
#530=(
GEOMETRIC_REPRESENTATION_CONTEXT(3)
GLOBAL_UNCERTAINTY_ASSIGNED_CONTEXT((#528))
GLOBAL_UNIT_ASSIGNED_CONTEXT((#531,#533,#534))
REPRESENTATION_CONTEXT('','3D')
);
#531=(
LENGTH_UNIT()
NAMED_UNIT(*)
SI_UNIT(.MILLI.,.METRE.)
);
#532=(
LENGTH_UNIT()
NAMED_UNIT(*)
SI_UNIT(.CENTI.,.METRE.)
);
#533=(
NAMED_UNIT(*)
PLANE_ANGLE_UNIT()
SI_UNIT($,.RADIAN.)
);
#534=(
NAMED_UNIT(*)
SI_UNIT($,.STERADIAN.)
SOLID_ANGLE_UNIT()
);
#535=SHAPE_DEFINITION_REPRESENTATION(#536,#537);
#536=PRODUCT_DEFINITION_SHAPE('',$,#539);
#537=SHAPE_REPRESENTATION('',(#318),#529);
#538=DESIGN_CONTEXT('part definition',#543,'design');
#539=PRODUCT_DEFINITION('N35-08-M8','N35-08-M8',#540,#538);
#540=PRODUCT_DEFINITION_FORMATION('A00',$,#545);
#541=PRODUCT_RELATED_PRODUCT_CATEGORY('N35-08-M8','N35-08-M8',(#545));
#542=APPLICATION_PROTOCOL_DEFINITION('international standard',
'ap203_configuration_controlled_3d_design_of_mechanical_parts_and_asse
mblies_mim_lf',2004,#543);
#543=APPLICATION_CONTEXT(
'Configuration Controlled 3D Design of Mechanical Parts and Assemblies');
#544=MECHANICAL_CONTEXT('part definition',#543,'mechanical');
#545=PRODUCT('N35-08-M8','N35-08-M8',
'Inserto fil. con molla mont. front. M8',(#544));
#546=PRESENTATION_STYLE_ASSIGNMENT((#547));
#547=SURFACE_STYLE_USAGE(.BOTH.,#550);
#548=SURFACE_STYLE_RENDERING_WITH_PROPERTIES($,#554,(#549));
#549=SURFACE_STYLE_TRANSPARENT(0.);
#550=SURFACE_SIDE_STYLE('',(#551,#548));
#551=SURFACE_STYLE_FILL_AREA(#552);
#552=FILL_AREA_STYLE('',(#553));
#553=FILL_AREA_STYLE_COLOUR('',#554);
#554=COLOUR_RGB('',0.745098039215686,0.737254901960784,0.729411764705882);
ENDSEC;
END-ISO-10303-21;
