ISO-10303-21;
HEADER;
/* Generated by software containing ST-Developer
 * from STEP Tools, Inc. (www.steptools.com) 
 */

FILE_DESCRIPTION(
/* description */ ('Inserto filettato M8'),
/* implementation_level */ '2;1');

FILE_NAME(
/* name */ 'C:\\Users\\Stefan.Nesic\\Desktop\\01010STEP\\N13-08-M8.stp',

/* time_stamp */ '2022-06-23T11:40:08+02:00',
/* author */ (''),
/* organization */ (''),
/* preprocessor_version */ 'ST-DEVELOPER v18.1',
/* originating_system */ 'Autodesk Inventor 2021',
/* authorisation */ '');

FILE_SCHEMA (('AUTOMOTIVE_DESIGN { 1 0 10303 214 3 1 1 }'));
ENDSEC;

DATA;
#10=MECHANICAL_DESIGN_GEOMETRIC_PRESENTATION_REPRESENTATION('',(#13),#360);
#11=SHAPE_REPRESENTATION_RELATIONSHIP('SRR','None',#367,#12);
#12=ADVANCED_BREP_SHAPE_REPRESENTATION('',(#14),#359);
#13=STYLED_ITEM('',(#376),#14);
#14=MANIFOLD_SOLID_BREP('Solido1',#144);
#15=FACE_BOUND('',#57,.T.);
#16=FACE_BOUND('',#59,.T.);
#17=CYLINDRICAL_SURFACE('',#167,3.3235);
#18=LINE('',#335,#27);
#19=LINE('',#337,#28);
#20=LINE('',#338,#29);
#21=LINE('',#341,#30);
#22=LINE('',#342,#31);
#23=LINE('',#347,#32);
#24=LINE('',#351,#33);
#25=LINE('',#352,#34);
#26=LINE('',#354,#35);
#27=VECTOR('',#180,10.);
#28=VECTOR('',#181,10.);
#29=VECTOR('',#182,10.);
#30=VECTOR('',#185,10.);
#31=VECTOR('',#186,10.);
#32=VECTOR('',#191,3.3235);
#33=VECTOR('',#196,10.);
#34=VECTOR('',#197,10.);
#35=VECTOR('',#200,10.);
#36=PLANE('',#165);
#37=PLANE('',#166);
#38=PLANE('',#170);
#39=PLANE('',#171);
#40=PLANE('',#172);
#41=PLANE('',#173);
#42=FACE_OUTER_BOUND('',#50,.T.);
#43=FACE_OUTER_BOUND('',#51,.T.);
#44=FACE_OUTER_BOUND('',#52,.T.);
#45=FACE_OUTER_BOUND('',#53,.T.);
#46=FACE_OUTER_BOUND('',#54,.T.);
#47=FACE_OUTER_BOUND('',#55,.T.);
#48=FACE_OUTER_BOUND('',#56,.T.);
#49=FACE_OUTER_BOUND('',#58,.T.);
#50=EDGE_LOOP('',(#99,#100,#101,#102,#103,#104,#105,#106));
#51=EDGE_LOOP('',(#107,#108,#109,#110,#111));
#52=EDGE_LOOP('',(#112,#113,#114,#115));
#53=EDGE_LOOP('',(#116,#117,#118,#119));
#54=EDGE_LOOP('',(#120,#121,#122,#123));
#55=EDGE_LOOP('',(#124,#125,#126,#127));
#56=EDGE_LOOP('',(#128,#129,#130,#131));
#57=EDGE_LOOP('',(#132));
#58=EDGE_LOOP('',(#133));
#59=EDGE_LOOP('',(#134));
#60=CIRCLE('',#164,3.71013273853212);
#61=CIRCLE('',#168,3.3235);
#62=CIRCLE('',#169,3.3235);
#63=(
BOUNDED_CURVE()
B_SPLINE_CURVE(2,(#294,#295,#296),.UNSPECIFIED.,.F.,.F.)
B_SPLINE_CURVE_WITH_KNOTS((3,3),(0.788361061678953,0.970421377805963),
 .UNSPECIFIED.)
CURVE()
GEOMETRIC_REPRESENTATION_ITEM()
RATIONAL_B_SPLINE_CURVE((0.990245195599137,0.990992945416422,1.))
REPRESENTATION_ITEM('')
);
#64=B_SPLINE_CURVE_WITH_KNOTS('',3,(#235,#236,#237,#238,#239,#240,#241,
#242,#243,#244,#245,#246,#247,#248,#249,#250,#251,#252,#253,#254,#255,#256),
 .UNSPECIFIED.,.F.,.F.,(4,2,2,2,2,2,2,2,2,2,4),(2.93455798600477,3.03833816954513,
3.2562131364051,3.38377725991858,3.51357621082215,3.64337516172571,3.77317411262927,
3.90297306353283,4.03053718704631,4.24841215390628,4.35219233744665),
 .UNSPECIFIED.);
#65=B_SPLINE_CURVE_WITH_KNOTS('',3,(#258,#259,#260,#261,#262,#263,#264,
#265,#266,#267,#268,#269,#270,#271,#272,#273,#274,#275,#276,#277,#278,#279),
 .UNSPECIFIED.,.F.,.F.,(4,2,2,2,2,2,2,2,2,2,4),(2.93455798600477,3.03833816954513,
3.2562131364051,3.38377725991858,3.51357621082215,3.64337516172571,3.77317411262927,
3.90297306353283,4.03053718704631,4.24841215390628,4.35219233744665),
 .UNSPECIFIED.);
#66=B_SPLINE_CURVE_WITH_KNOTS('',3,(#281,#282,#283,#284,#285,#286,#287,
#288,#289,#290,#291,#292),.UNSPECIFIED.,.F.,.F.,(4,2,2,2,2,4),(3.64337516172571,
3.77317411262927,3.90297306353283,4.03053718704631,4.24841215390628,4.35219233744665),
 .UNSPECIFIED.);
#67=B_SPLINE_CURVE_WITH_KNOTS('',3,(#299,#300,#301,#302,#303,#304,#305,
#306,#307,#308,#309,#310),.UNSPECIFIED.,.F.,.F.,(4,2,2,2,2,4),(2.93455798600477,
3.03833816954513,3.2562131364051,3.38377725991858,3.51357621082215,3.64337516172571),
 .UNSPECIFIED.);
#68=B_SPLINE_CURVE_WITH_KNOTS('',3,(#311,#312,#313,#314,#315,#316,#317,
#318,#319,#320,#321,#322,#323,#324,#325,#326,#327,#328,#329,#330,#331,#332),
 .UNSPECIFIED.,.F.,.F.,(4,2,2,2,2,2,2,2,2,2,4),(2.93455798600477,3.03833816954513,
3.2562131364051,3.38377725991858,3.51357621082215,3.64337516172571,3.77317411262927,
3.90297306353283,4.03053718704631,4.24841215390628,4.35219233744665),
 .UNSPECIFIED.);
#69=VERTEX_POINT('',#233);
#70=VERTEX_POINT('',#234);
#71=VERTEX_POINT('',#257);
#72=VERTEX_POINT('',#280);
#73=VERTEX_POINT('',#293);
#74=VERTEX_POINT('',#298);
#75=VERTEX_POINT('',#334);
#76=VERTEX_POINT('',#336);
#77=VERTEX_POINT('',#340);
#78=VERTEX_POINT('',#344);
#79=VERTEX_POINT('',#346);
#80=VERTEX_POINT('',#350);
#81=EDGE_CURVE('',#69,#70,#64,.T.);
#82=EDGE_CURVE('',#71,#69,#65,.T.);
#83=EDGE_CURVE('',#72,#71,#66,.T.);
#84=EDGE_CURVE('',#72,#73,#63,.T.);
#85=EDGE_CURVE('',#73,#73,#60,.T.);
#86=EDGE_CURVE('',#74,#72,#67,.T.);
#87=EDGE_CURVE('',#70,#74,#68,.T.);
#88=EDGE_CURVE('',#71,#75,#18,.T.);
#89=EDGE_CURVE('',#76,#75,#19,.T.);
#90=EDGE_CURVE('',#74,#76,#20,.T.);
#91=EDGE_CURVE('',#69,#77,#21,.T.);
#92=EDGE_CURVE('',#75,#77,#22,.T.);
#93=EDGE_CURVE('',#78,#78,#61,.T.);
#94=EDGE_CURVE('',#78,#79,#23,.T.);
#95=EDGE_CURVE('',#79,#79,#62,.T.);
#96=EDGE_CURVE('',#70,#80,#24,.T.);
#97=EDGE_CURVE('',#77,#80,#25,.T.);
#98=EDGE_CURVE('',#80,#76,#26,.T.);
#99=ORIENTED_EDGE('',*,*,#81,.F.);
#100=ORIENTED_EDGE('',*,*,#82,.F.);
#101=ORIENTED_EDGE('',*,*,#83,.F.);
#102=ORIENTED_EDGE('',*,*,#84,.T.);
#103=ORIENTED_EDGE('',*,*,#85,.F.);
#104=ORIENTED_EDGE('',*,*,#84,.F.);
#105=ORIENTED_EDGE('',*,*,#86,.F.);
#106=ORIENTED_EDGE('',*,*,#87,.F.);
#107=ORIENTED_EDGE('',*,*,#86,.T.);
#108=ORIENTED_EDGE('',*,*,#83,.T.);
#109=ORIENTED_EDGE('',*,*,#88,.T.);
#110=ORIENTED_EDGE('',*,*,#89,.F.);
#111=ORIENTED_EDGE('',*,*,#90,.F.);
#112=ORIENTED_EDGE('',*,*,#82,.T.);
#113=ORIENTED_EDGE('',*,*,#91,.T.);
#114=ORIENTED_EDGE('',*,*,#92,.F.);
#115=ORIENTED_EDGE('',*,*,#88,.F.);
#116=ORIENTED_EDGE('',*,*,#93,.F.);
#117=ORIENTED_EDGE('',*,*,#94,.T.);
#118=ORIENTED_EDGE('',*,*,#95,.F.);
#119=ORIENTED_EDGE('',*,*,#94,.F.);
#120=ORIENTED_EDGE('',*,*,#81,.T.);
#121=ORIENTED_EDGE('',*,*,#96,.T.);
#122=ORIENTED_EDGE('',*,*,#97,.F.);
#123=ORIENTED_EDGE('',*,*,#91,.F.);
#124=ORIENTED_EDGE('',*,*,#87,.T.);
#125=ORIENTED_EDGE('',*,*,#90,.T.);
#126=ORIENTED_EDGE('',*,*,#98,.F.);
#127=ORIENTED_EDGE('',*,*,#96,.F.);
#128=ORIENTED_EDGE('',*,*,#98,.T.);
#129=ORIENTED_EDGE('',*,*,#89,.T.);
#130=ORIENTED_EDGE('',*,*,#92,.T.);
#131=ORIENTED_EDGE('',*,*,#97,.T.);
#132=ORIENTED_EDGE('',*,*,#93,.T.);
#133=ORIENTED_EDGE('',*,*,#85,.T.);
#134=ORIENTED_EDGE('',*,*,#95,.T.);
#135=(
BOUNDED_SURFACE()
B_SPLINE_SURFACE(2,2,((#206,#207,#208,#209,#210,#211,#212,#213,#214),(#215,
#216,#217,#218,#219,#220,#221,#222,#223),(#224,#225,#226,#227,#228,#229,
#230,#231,#232)),.UNSPECIFIED.,.F.,.T.,.F.)
B_SPLINE_SURFACE_WITH_KNOTS((3,3),(3,2,2,2,3),(0.573335363604911,0.970421377805963),
(-3.14159265358979,-1.5707963267949,0.,1.5707963267949,3.14159265358979),
 .UNSPECIFIED.)
GEOMETRIC_REPRESENTATION_ITEM()
RATIONAL_B_SPLINE_SURFACE(((1.,0.707106781186548,1.,0.707106781186548,1.,
0.707106781186548,1.,0.707106781186548,1.),(0.980354997286783,0.693215666551604,
0.980354997286783,0.693215666551604,0.980354997286783,0.693215666551604,
0.980354997286783,0.693215666551604,0.980354997286783),(1.,0.707106781186548,
1.,0.707106781186548,1.,0.707106781186548,1.,0.707106781186548,1.)))
REPRESENTATION_ITEM('')
SURFACE()
);
#136=ADVANCED_FACE('',(#42),#135,.F.);
#137=ADVANCED_FACE('',(#43),#36,.T.);
#138=ADVANCED_FACE('',(#44),#37,.T.);
#139=ADVANCED_FACE('',(#45),#17,.F.);
#140=ADVANCED_FACE('',(#46),#38,.T.);
#141=ADVANCED_FACE('',(#47),#39,.T.);
#142=ADVANCED_FACE('',(#48,#15),#40,.T.);
#143=ADVANCED_FACE('',(#49,#16),#41,.F.);
#144=CLOSED_SHELL('',(#136,#137,#138,#139,#140,#141,#142,#143));
#145=DERIVED_UNIT_ELEMENT(#147,1.);
#146=DERIVED_UNIT_ELEMENT(#362,-3.);
#147=(
MASS_UNIT()
NAMED_UNIT(*)
SI_UNIT($,.GRAM.)
);
#148=DERIVED_UNIT((#145,#146));
#149=MEASURE_REPRESENTATION_ITEM('density measure',
POSITIVE_RATIO_MEASURE(7.85),#148);
#150=PROPERTY_DEFINITION_REPRESENTATION(#155,#152);
#151=PROPERTY_DEFINITION_REPRESENTATION(#156,#153);
#152=REPRESENTATION('material name',(#154),#359);
#153=REPRESENTATION('density',(#149),#359);
#154=DESCRIPTIVE_REPRESENTATION_ITEM('Acciaio','Acciaio');
#155=PROPERTY_DEFINITION('material property','material name',#369);
#156=PROPERTY_DEFINITION('material property','density of part',#369);
#157=DATE_TIME_ROLE('creation_date');
#158=APPLIED_DATE_AND_TIME_ASSIGNMENT(#159,#157,(#369));
#159=DATE_AND_TIME(#160,#161);
#160=CALENDAR_DATE(2017,26,1);
#161=LOCAL_TIME(0,0,0.,#162);
#162=COORDINATED_UNIVERSAL_TIME_OFFSET(0,0,.BEHIND.);
#163=AXIS2_PLACEMENT_3D('placement',#205,#174,#175);
#164=AXIS2_PLACEMENT_3D('',#297,#176,#177);
#165=AXIS2_PLACEMENT_3D('',#333,#178,#179);
#166=AXIS2_PLACEMENT_3D('',#339,#183,#184);
#167=AXIS2_PLACEMENT_3D('',#343,#187,#188);
#168=AXIS2_PLACEMENT_3D('',#345,#189,#190);
#169=AXIS2_PLACEMENT_3D('',#348,#192,#193);
#170=AXIS2_PLACEMENT_3D('',#349,#194,#195);
#171=AXIS2_PLACEMENT_3D('',#353,#198,#199);
#172=AXIS2_PLACEMENT_3D('',#355,#201,#202);
#173=AXIS2_PLACEMENT_3D('',#356,#203,#204);
#174=DIRECTION('axis',(0.,0.,1.));
#175=DIRECTION('refdir',(1.,0.,0.));
#176=DIRECTION('center_axis',(0.,0.,-1.));
#177=DIRECTION('ref_axis',(-1.,0.,0.));
#178=DIRECTION('center_axis',(1.,0.,0.));
#179=DIRECTION('ref_axis',(0.,1.,0.));
#180=DIRECTION('',(0.,0.,1.));
#181=DIRECTION('',(0.,1.,0.));
#182=DIRECTION('',(0.,0.,1.));
#183=DIRECTION('center_axis',(0.,1.,0.));
#184=DIRECTION('ref_axis',(-1.,0.,0.));
#185=DIRECTION('',(0.,0.,1.));
#186=DIRECTION('',(-1.,0.,0.));
#187=DIRECTION('center_axis',(0.,0.,1.));
#188=DIRECTION('ref_axis',(1.,0.,0.));
#189=DIRECTION('center_axis',(0.,0.,-1.));
#190=DIRECTION('ref_axis',(1.,0.,0.));
#191=DIRECTION('',(0.,0.,-1.));
#192=DIRECTION('center_axis',(0.,0.,1.));
#193=DIRECTION('ref_axis',(1.,0.,0.));
#194=DIRECTION('center_axis',(-1.,0.,0.));
#195=DIRECTION('ref_axis',(0.,-1.,0.));
#196=DIRECTION('',(0.,0.,1.));
#197=DIRECTION('',(0.,-1.,0.));
#198=DIRECTION('center_axis',(0.,-1.,0.));
#199=DIRECTION('ref_axis',(1.,0.,0.));
#200=DIRECTION('',(1.,0.,0.));
#201=DIRECTION('center_axis',(0.,0.,1.));
#202=DIRECTION('ref_axis',(1.,0.,0.));
#203=DIRECTION('center_axis',(0.,0.,1.));
#204=DIRECTION('ref_axis',(1.,0.,0.));
#205=CARTESIAN_POINT('',(0.,0.,0.));
#206=CARTESIAN_POINT('Ctrl Pts',(9.19238815542512,0.,5.63253422500537));
#207=CARTESIAN_POINT('Ctrl Pts',(9.19238815542512,-9.19238815542512,5.63253422500537));
#208=CARTESIAN_POINT('Ctrl Pts',(0.,-9.19238815542512,5.63253422500537));
#209=CARTESIAN_POINT('Ctrl Pts',(-9.19238815542512,-9.19238815542512,5.63253422500537));
#210=CARTESIAN_POINT('Ctrl Pts',(-9.19238815542512,0.,5.63253422500537));
#211=CARTESIAN_POINT('Ctrl Pts',(-9.19238815542512,9.19238815542512,5.63253422500537));
#212=CARTESIAN_POINT('Ctrl Pts',(0.,9.19238815542512,5.63253422500537));
#213=CARTESIAN_POINT('Ctrl Pts',(9.19238815542512,9.19238815542512,5.63253422500537));
#214=CARTESIAN_POINT('Ctrl Pts',(9.19238815542512,0.,5.63253422500537));
#215=CARTESIAN_POINT('Ctrl Pts',(7.01787542106863,0.,2.2647697070884));
#216=CARTESIAN_POINT('Ctrl Pts',(7.01787542106863,-7.01787542106863,2.2647697070884));
#217=CARTESIAN_POINT('Ctrl Pts',(0.,-7.01787542106863,2.26476970708839));
#218=CARTESIAN_POINT('Ctrl Pts',(-7.01787542106863,-7.01787542106863,2.26476970708839));
#219=CARTESIAN_POINT('Ctrl Pts',(-7.01787542106863,0.,2.26476970708839));
#220=CARTESIAN_POINT('Ctrl Pts',(-7.01787542106863,7.01787542106863,2.26476970708839));
#221=CARTESIAN_POINT('Ctrl Pts',(0.,7.01787542106863,2.26476970708839));
#222=CARTESIAN_POINT('Ctrl Pts',(7.01787542106863,7.01787542106863,2.2647697070884));
#223=CARTESIAN_POINT('Ctrl Pts',(7.01787542106863,0.,2.2647697070884));
#224=CARTESIAN_POINT('Ctrl Pts',(3.71013273853212,0.,0.));
#225=CARTESIAN_POINT('Ctrl Pts',(3.71013273853212,-3.71013273853212,0.));
#226=CARTESIAN_POINT('Ctrl Pts',(0.,-3.71013273853212,0.));
#227=CARTESIAN_POINT('Ctrl Pts',(-3.71013273853212,-3.71013273853212,0.));
#228=CARTESIAN_POINT('Ctrl Pts',(-3.71013273853212,0.,0.));
#229=CARTESIAN_POINT('Ctrl Pts',(-3.71013273853212,3.71013273853212,0.));
#230=CARTESIAN_POINT('Ctrl Pts',(0.,3.71013273853212,0.));
#231=CARTESIAN_POINT('Ctrl Pts',(3.71013273853212,3.71013273853212,0.));
#232=CARTESIAN_POINT('Ctrl Pts',(3.71013273853212,0.,0.));
#233=CARTESIAN_POINT('',(-6.5,6.5,5.63253422500537));
#234=CARTESIAN_POINT('',(-6.5,-6.5,5.63253422500537));
#235=CARTESIAN_POINT('Ctrl Pts',(-6.5,6.5,5.63253422500537));
#236=CARTESIAN_POINT('Ctrl Pts',(-6.5,6.25009599598945,5.35885742802628));
#237=CARTESIAN_POINT('Ctrl Pts',(-6.5,5.99423911052111,5.10162336078005));
#238=CARTESIAN_POINT('Ctrl Pts',(-6.5,5.20816632440018,4.37246785593695));
#239=CARTESIAN_POINT('Ctrl Pts',(-6.5,4.51701302490326,3.84160145509561));
#240=CARTESIAN_POINT('Ctrl Pts',(-6.5,3.52927028650187,3.24979677068419));
#241=CARTESIAN_POINT('Ctrl Pts',(-6.5,3.07436951899679,3.01865399781968));
#242=CARTESIAN_POINT('Ctrl Pts',(-6.5,2.28039484617296,2.69375859968394));
#243=CARTESIAN_POINT('Ctrl Pts',(-6.5,1.82830032566412,2.54807420755228));
#244=CARTESIAN_POINT('Ctrl Pts',(-6.5,0.904517720073156,2.3553202184991));
#245=CARTESIAN_POINT('Ctrl Pts',(-6.5,0.432663169678537,2.30904927768549));
#246=CARTESIAN_POINT('Ctrl Pts',(-6.5,-0.432663169678538,2.30904927768549));
#247=CARTESIAN_POINT('Ctrl Pts',(-6.5,-0.904517720073157,2.3553202184991));
#248=CARTESIAN_POINT('Ctrl Pts',(-6.5,-1.82830032566412,2.54807420755228));
#249=CARTESIAN_POINT('Ctrl Pts',(-6.5,-2.28039484617296,2.69375859968394));
#250=CARTESIAN_POINT('Ctrl Pts',(-6.5,-3.07436951899679,3.01865399781968));
#251=CARTESIAN_POINT('Ctrl Pts',(-6.5,-3.52927028650187,3.24979677068419));
#252=CARTESIAN_POINT('Ctrl Pts',(-6.5,-4.51701302490326,3.84160145509561));
#253=CARTESIAN_POINT('Ctrl Pts',(-6.5,-5.20816632440018,4.37246785593695));
#254=CARTESIAN_POINT('Ctrl Pts',(-6.5,-5.99423911052111,5.10162336078005));
#255=CARTESIAN_POINT('Ctrl Pts',(-6.5,-6.25009599598945,5.35885742802628));
#256=CARTESIAN_POINT('Ctrl Pts',(-6.5,-6.5,5.63253422500537));
#257=CARTESIAN_POINT('',(6.5,6.5,5.63253422500537));
#258=CARTESIAN_POINT('Ctrl Pts',(6.5,6.5,5.63253422500537));
#259=CARTESIAN_POINT('Ctrl Pts',(6.25009599598945,6.5,5.35885742802628));
#260=CARTESIAN_POINT('Ctrl Pts',(5.99423911052111,6.5,5.10162336078005));
#261=CARTESIAN_POINT('Ctrl Pts',(5.20816632440018,6.5,4.37246785593695));
#262=CARTESIAN_POINT('Ctrl Pts',(4.51701302490326,6.5,3.84160145509561));
#263=CARTESIAN_POINT('Ctrl Pts',(3.52927028650187,6.5,3.24979677068419));
#264=CARTESIAN_POINT('Ctrl Pts',(3.07436951899679,6.5,3.01865399781968));
#265=CARTESIAN_POINT('Ctrl Pts',(2.28039484617296,6.5,2.69375859968394));
#266=CARTESIAN_POINT('Ctrl Pts',(1.82830032566412,6.5,2.54807420755228));
#267=CARTESIAN_POINT('Ctrl Pts',(0.904517720073156,6.5,2.3553202184991));
#268=CARTESIAN_POINT('Ctrl Pts',(0.432663169678537,6.5,2.30904927768549));
#269=CARTESIAN_POINT('Ctrl Pts',(-0.432663169678538,6.5,2.30904927768549));
#270=CARTESIAN_POINT('Ctrl Pts',(-0.904517720073157,6.5,2.3553202184991));
#271=CARTESIAN_POINT('Ctrl Pts',(-1.82830032566412,6.5,2.54807420755228));
#272=CARTESIAN_POINT('Ctrl Pts',(-2.28039484617296,6.5,2.69375859968394));
#273=CARTESIAN_POINT('Ctrl Pts',(-3.07436951899679,6.5,3.01865399781968));
#274=CARTESIAN_POINT('Ctrl Pts',(-3.52927028650187,6.5,3.24979677068419));
#275=CARTESIAN_POINT('Ctrl Pts',(-4.51701302490326,6.5,3.84160145509561));
#276=CARTESIAN_POINT('Ctrl Pts',(-5.20816632440018,6.5,4.37246785593695));
#277=CARTESIAN_POINT('Ctrl Pts',(-5.99423911052111,6.5,5.10162336078005));
#278=CARTESIAN_POINT('Ctrl Pts',(-6.25009599598945,6.5,5.35885742802628));
#279=CARTESIAN_POINT('Ctrl Pts',(-6.5,6.5,5.63253422500537));
#280=CARTESIAN_POINT('',(6.5,-1.20454453566601E-16,2.30904927768549));
#281=CARTESIAN_POINT('Ctrl Pts',(6.5,5.55111512312578E-16,2.30904927768549));
#282=CARTESIAN_POINT('Ctrl Pts',(6.5,0.432663169678538,2.30904927768549));
#283=CARTESIAN_POINT('Ctrl Pts',(6.5,0.904517720073157,2.3553202184991));
#284=CARTESIAN_POINT('Ctrl Pts',(6.5,1.82830032566412,2.54807420755228));
#285=CARTESIAN_POINT('Ctrl Pts',(6.5,2.28039484617296,2.69375859968394));
#286=CARTESIAN_POINT('Ctrl Pts',(6.5,3.07436951899679,3.01865399781968));
#287=CARTESIAN_POINT('Ctrl Pts',(6.5,3.52927028650187,3.24979677068419));
#288=CARTESIAN_POINT('Ctrl Pts',(6.5,4.51701302490326,3.84160145509561));
#289=CARTESIAN_POINT('Ctrl Pts',(6.5,5.20816632440018,4.37246785593695));
#290=CARTESIAN_POINT('Ctrl Pts',(6.5,5.99423911052111,5.10162336078005));
#291=CARTESIAN_POINT('Ctrl Pts',(6.5,6.25009599598945,5.35885742802628));
#292=CARTESIAN_POINT('Ctrl Pts',(6.5,6.5,5.63253422500537));
#293=CARTESIAN_POINT('',(3.71013273853212,-4.54360218265516E-16,0.));
#294=CARTESIAN_POINT('Ctrl Pts',(6.5,0.,2.3090492776855));
#295=CARTESIAN_POINT('Ctrl Pts',(5.21042276748934,0.,1.02722966552631));
#296=CARTESIAN_POINT('Ctrl Pts',(3.71013273853212,0.,0.));
#297=CARTESIAN_POINT('Origin',(0.,0.,0.));
#298=CARTESIAN_POINT('',(6.5,-6.5,5.63253422500537));
#299=CARTESIAN_POINT('Ctrl Pts',(6.5,-6.5,5.63253422500537));
#300=CARTESIAN_POINT('Ctrl Pts',(6.5,-6.25009599598945,5.35885742802628));
#301=CARTESIAN_POINT('Ctrl Pts',(6.5,-5.99423911052111,5.10162336078005));
#302=CARTESIAN_POINT('Ctrl Pts',(6.5,-5.20816632440018,4.37246785593695));
#303=CARTESIAN_POINT('Ctrl Pts',(6.5,-4.51701302490326,3.84160145509561));
#304=CARTESIAN_POINT('Ctrl Pts',(6.5,-3.52927028650187,3.24979677068419));
#305=CARTESIAN_POINT('Ctrl Pts',(6.5,-3.07436951899679,3.01865399781968));
#306=CARTESIAN_POINT('Ctrl Pts',(6.5,-2.28039484617296,2.69375859968394));
#307=CARTESIAN_POINT('Ctrl Pts',(6.5,-1.82830032566412,2.54807420755228));
#308=CARTESIAN_POINT('Ctrl Pts',(6.5,-0.904517720073156,2.3553202184991));
#309=CARTESIAN_POINT('Ctrl Pts',(6.5,-0.432663169678537,2.30904927768549));
#310=CARTESIAN_POINT('Ctrl Pts',(6.5,2.77555756156289E-16,2.30904927768549));
#311=CARTESIAN_POINT('Ctrl Pts',(-6.5,-6.5,5.63253422500537));
#312=CARTESIAN_POINT('Ctrl Pts',(-6.25009599598945,-6.5,5.35885742802628));
#313=CARTESIAN_POINT('Ctrl Pts',(-5.99423911052111,-6.5,5.10162336078005));
#314=CARTESIAN_POINT('Ctrl Pts',(-5.20816632440018,-6.5,4.37246785593695));
#315=CARTESIAN_POINT('Ctrl Pts',(-4.51701302490326,-6.5,3.84160145509561));
#316=CARTESIAN_POINT('Ctrl Pts',(-3.52927028650187,-6.5,3.24979677068419));
#317=CARTESIAN_POINT('Ctrl Pts',(-3.07436951899679,-6.5,3.01865399781968));
#318=CARTESIAN_POINT('Ctrl Pts',(-2.28039484617296,-6.5,2.69375859968394));
#319=CARTESIAN_POINT('Ctrl Pts',(-1.82830032566412,-6.5,2.54807420755228));
#320=CARTESIAN_POINT('Ctrl Pts',(-0.904517720073156,-6.5,2.3553202184991));
#321=CARTESIAN_POINT('Ctrl Pts',(-0.432663169678537,-6.5,2.30904927768549));
#322=CARTESIAN_POINT('Ctrl Pts',(0.432663169678538,-6.5,2.30904927768549));
#323=CARTESIAN_POINT('Ctrl Pts',(0.904517720073157,-6.5,2.3553202184991));
#324=CARTESIAN_POINT('Ctrl Pts',(1.82830032566412,-6.5,2.54807420755228));
#325=CARTESIAN_POINT('Ctrl Pts',(2.28039484617296,-6.5,2.69375859968394));
#326=CARTESIAN_POINT('Ctrl Pts',(3.07436951899679,-6.5,3.01865399781968));
#327=CARTESIAN_POINT('Ctrl Pts',(3.52927028650187,-6.5,3.24979677068419));
#328=CARTESIAN_POINT('Ctrl Pts',(4.51701302490326,-6.5,3.84160145509561));
#329=CARTESIAN_POINT('Ctrl Pts',(5.20816632440018,-6.5,4.37246785593695));
#330=CARTESIAN_POINT('Ctrl Pts',(5.99423911052111,-6.5,5.10162336078005));
#331=CARTESIAN_POINT('Ctrl Pts',(6.25009599598945,-6.5,5.35885742802628));
#332=CARTESIAN_POINT('Ctrl Pts',(6.5,-6.5,5.63253422500537));
#333=CARTESIAN_POINT('Origin',(6.5,-6.5,0.));
#334=CARTESIAN_POINT('',(6.5,6.5,5.8));
#335=CARTESIAN_POINT('',(6.5,6.5,0.));
#336=CARTESIAN_POINT('',(6.5,-6.5,5.8));
#337=CARTESIAN_POINT('',(6.5,-6.5,5.8));
#338=CARTESIAN_POINT('',(6.5,-6.5,0.));
#339=CARTESIAN_POINT('Origin',(6.5,6.5,0.));
#340=CARTESIAN_POINT('',(-6.5,6.5,5.8));
#341=CARTESIAN_POINT('',(-6.5,6.5,0.));
#342=CARTESIAN_POINT('',(6.5,6.5,5.8));
#343=CARTESIAN_POINT('Origin',(0.,0.,-5.3));
#344=CARTESIAN_POINT('',(-3.3235,-4.07011363696623E-16,5.8));
#345=CARTESIAN_POINT('Origin',(0.,0.,5.8));
#346=CARTESIAN_POINT('',(-3.3235,-4.07011363696623E-16,0.));
#347=CARTESIAN_POINT('',(-3.3235,-4.07011363696623E-16,-5.3));
#348=CARTESIAN_POINT('Origin',(0.,0.,0.));
#349=CARTESIAN_POINT('Origin',(-6.5,6.5,0.));
#350=CARTESIAN_POINT('',(-6.5,-6.5,5.8));
#351=CARTESIAN_POINT('',(-6.5,-6.5,0.));
#352=CARTESIAN_POINT('',(-6.5,6.5,5.8));
#353=CARTESIAN_POINT('Origin',(-6.5,-6.5,0.));
#354=CARTESIAN_POINT('',(-6.5,-6.5,5.8));
#355=CARTESIAN_POINT('Origin',(0.,0.,5.8));
#356=CARTESIAN_POINT('Origin',(0.,0.,0.));
#357=UNCERTAINTY_MEASURE_WITH_UNIT(LENGTH_MEASURE(0.01),#361,
'DISTANCE_ACCURACY_VALUE',
'Maximum model space distance between geometric entities at asserted c
onnectivities');
#358=UNCERTAINTY_MEASURE_WITH_UNIT(LENGTH_MEASURE(0.01),#361,
'DISTANCE_ACCURACY_VALUE',
'Maximum model space distance between geometric entities at asserted c
onnectivities');
#359=(
GEOMETRIC_REPRESENTATION_CONTEXT(3)
GLOBAL_UNCERTAINTY_ASSIGNED_CONTEXT((#357))
GLOBAL_UNIT_ASSIGNED_CONTEXT((#361,#363,#364))
REPRESENTATION_CONTEXT('','3D')
);
#360=(
GEOMETRIC_REPRESENTATION_CONTEXT(3)
GLOBAL_UNCERTAINTY_ASSIGNED_CONTEXT((#358))
GLOBAL_UNIT_ASSIGNED_CONTEXT((#361,#363,#364))
REPRESENTATION_CONTEXT('','3D')
);
#361=(
LENGTH_UNIT()
NAMED_UNIT(*)
SI_UNIT(.MILLI.,.METRE.)
);
#362=(
LENGTH_UNIT()
NAMED_UNIT(*)
SI_UNIT(.CENTI.,.METRE.)
);
#363=(
NAMED_UNIT(*)
PLANE_ANGLE_UNIT()
SI_UNIT($,.RADIAN.)
);
#364=(
NAMED_UNIT(*)
SI_UNIT($,.STERADIAN.)
SOLID_ANGLE_UNIT()
);
#365=SHAPE_DEFINITION_REPRESENTATION(#366,#367);
#366=PRODUCT_DEFINITION_SHAPE('',$,#369);
#367=SHAPE_REPRESENTATION('',(#163),#359);
#368=PRODUCT_DEFINITION_CONTEXT('part definition',#373,'design');
#369=PRODUCT_DEFINITION('DQ32-80','N13-08-M8',#370,#368);
#370=PRODUCT_DEFINITION_FORMATION('A00',$,#375);
#371=PRODUCT_RELATED_PRODUCT_CATEGORY('N13-08-M8','N13-08-M8',(#375));
#372=APPLICATION_PROTOCOL_DEFINITION('international standard',
'automotive_design',2009,#373);
#373=APPLICATION_CONTEXT(
'Core Data for Automotive Mechanical Design Process');
#374=PRODUCT_CONTEXT('part definition',#373,'mechanical');
#375=PRODUCT('DQ32-80','N13-08-M8','Inserto filettato M8',(#374));
#376=PRESENTATION_STYLE_ASSIGNMENT((#377));
#377=SURFACE_STYLE_USAGE(.BOTH.,#380);
#378=SURFACE_STYLE_RENDERING_WITH_PROPERTIES($,#384,(#379));
#379=SURFACE_STYLE_TRANSPARENT(0.);
#380=SURFACE_SIDE_STYLE('',(#381,#378));
#381=SURFACE_STYLE_FILL_AREA(#382);
#382=FILL_AREA_STYLE('',(#383));
#383=FILL_AREA_STYLE_COLOUR('',#384);
#384=COLOUR_RGB('',0.647058823529412,0.67843137254902,0.694117647058824);
ENDSEC;
END-ISO-10303-21;
