ISO-10303-21;
HEADER;
/* Generated by software containing ST-Developer
 * from STEP Tools, Inc. (www.steptools.com) 
 */

FILE_DESCRIPTION(
/* description */ ('Piastra piedino M12 per profilo 40x80'),
/* implementation_level */ '2;1');

FILE_NAME(
/* name */ 'C:\\Users\\marco.dallariva\\Desktop\\x Mattia\\MPT40-80M12.
stp',
/* time_stamp */ '2023-07-10T15:44:06+02:00',
/* author */ ('maritza.dallavecchia'),
/* organization */ (''),
/* preprocessor_version */ 'ST-DEVELOPER v18.1',
/* originating_system */ 'Autodesk Inventor 2021',
/* authorisation */ '');

FILE_SCHEMA (('AUTOMOTIVE_DESIGN { 1 0 10303 214 3 1 1 }'));
ENDSEC;

DATA;
#10=MECHANICAL_DESIGN_GEOMETRIC_PRESENTATION_REPRESENTATION('',(#13),#536);
#11=SHAPE_REPRESENTATION_RELATIONSHIP('SRR','None',#543,#12);
#12=ADVANCED_BREP_SHAPE_REPRESENTATION('',(#14),#535);
#13=STYLED_ITEM('',(#552),#14);
#14=MANIFOLD_SOLID_BREP('Solido1',#302);
#15=FACE_BOUND('',#58,.T.);
#16=FACE_BOUND('',#59,.T.);
#17=FACE_BOUND('',#60,.T.);
#18=FACE_BOUND('',#62,.T.);
#19=FACE_BOUND('',#63,.T.);
#20=FACE_BOUND('',#64,.T.);
#21=FACE_BOUND('',#70,.T.);
#22=FACE_BOUND('',#72,.T.);
#23=PLANE('',#337);
#24=PLANE('',#338);
#25=PLANE('',#339);
#26=PLANE('',#340);
#27=PLANE('',#341);
#28=PLANE('',#346);
#29=PLANE('',#355);
#30=PLANE('',#356);
#31=FACE_OUTER_BOUND('',#48,.T.);
#32=FACE_OUTER_BOUND('',#49,.T.);
#33=FACE_OUTER_BOUND('',#50,.T.);
#34=FACE_OUTER_BOUND('',#51,.T.);
#35=FACE_OUTER_BOUND('',#52,.T.);
#36=FACE_OUTER_BOUND('',#53,.T.);
#37=FACE_OUTER_BOUND('',#54,.T.);
#38=FACE_OUTER_BOUND('',#55,.T.);
#39=FACE_OUTER_BOUND('',#56,.T.);
#40=FACE_OUTER_BOUND('',#57,.T.);
#41=FACE_OUTER_BOUND('',#61,.T.);
#42=FACE_OUTER_BOUND('',#65,.T.);
#43=FACE_OUTER_BOUND('',#66,.T.);
#44=FACE_OUTER_BOUND('',#67,.T.);
#45=FACE_OUTER_BOUND('',#68,.T.);
#46=FACE_OUTER_BOUND('',#69,.T.);
#47=FACE_OUTER_BOUND('',#71,.T.);
#48=EDGE_LOOP('',(#198,#199,#200,#201));
#49=EDGE_LOOP('',(#202,#203,#204,#205));
#50=EDGE_LOOP('',(#206,#207,#208,#209));
#51=EDGE_LOOP('',(#210,#211,#212,#213));
#52=EDGE_LOOP('',(#214,#215,#216,#217));
#53=EDGE_LOOP('',(#218,#219,#220,#221));
#54=EDGE_LOOP('',(#222,#223,#224,#225));
#55=EDGE_LOOP('',(#226,#227,#228,#229));
#56=EDGE_LOOP('',(#230,#231,#232,#233));
#57=EDGE_LOOP('',(#234,#235,#236,#237,#238,#239,#240,#241));
#58=EDGE_LOOP('',(#242));
#59=EDGE_LOOP('',(#243));
#60=EDGE_LOOP('',(#244));
#61=EDGE_LOOP('',(#245,#246,#247,#248,#249,#250,#251,#252));
#62=EDGE_LOOP('',(#253));
#63=EDGE_LOOP('',(#254));
#64=EDGE_LOOP('',(#255));
#65=EDGE_LOOP('',(#256,#257,#258,#259));
#66=EDGE_LOOP('',(#260,#261,#262,#263));
#67=EDGE_LOOP('',(#264,#265,#266,#267));
#68=EDGE_LOOP('',(#268,#269,#270,#271));
#69=EDGE_LOOP('',(#272));
#70=EDGE_LOOP('',(#273));
#71=EDGE_LOOP('',(#274));
#72=EDGE_LOOP('',(#275));
#73=LINE('',#455,#94);
#74=LINE('',#461,#95);
#75=LINE('',#467,#96);
#76=LINE('',#473,#97);
#77=LINE('',#479,#98);
#78=LINE('',#484,#99);
#79=LINE('',#486,#100);
#80=LINE('',#488,#101);
#81=LINE('',#489,#102);
#82=LINE('',#493,#103);
#83=LINE('',#495,#104);
#84=LINE('',#497,#105);
#85=LINE('',#498,#106);
#86=LINE('',#502,#107);
#87=LINE('',#504,#108);
#88=LINE('',#506,#109);
#89=LINE('',#507,#110);
#90=LINE('',#511,#111);
#91=LINE('',#513,#112);
#92=LINE('',#515,#113);
#93=LINE('',#516,#114);
#94=VECTOR('',#363,5.1);
#95=VECTOR('',#370,6.75);
#96=VECTOR('',#377,4.5);
#97=VECTOR('',#384,6.75);
#98=VECTOR('',#391,4.5);
#99=VECTOR('',#396,1000.);
#100=VECTOR('',#397,1000.);
#101=VECTOR('',#398,1000.);
#102=VECTOR('',#399,1000.);
#103=VECTOR('',#402,1000.);
#104=VECTOR('',#403,1000.);
#105=VECTOR('',#404,1000.);
#106=VECTOR('',#405,1000.);
#107=VECTOR('',#408,1000.);
#108=VECTOR('',#409,1000.);
#109=VECTOR('',#410,1000.);
#110=VECTOR('',#411,1000.);
#111=VECTOR('',#414,1000.);
#112=VECTOR('',#415,1000.);
#113=VECTOR('',#416,1000.);
#114=VECTOR('',#417,1000.);
#115=CIRCLE('',#323,5.1);
#116=CIRCLE('',#324,5.1);
#117=CIRCLE('',#326,6.75);
#118=CIRCLE('',#327,6.75);
#119=CIRCLE('',#329,4.5);
#120=CIRCLE('',#330,4.5);
#121=CIRCLE('',#332,6.75);
#122=CIRCLE('',#333,6.75);
#123=CIRCLE('',#335,4.5);
#124=CIRCLE('',#336,4.5);
#125=CIRCLE('',#342,2.5);
#126=CIRCLE('',#343,2.5);
#127=CIRCLE('',#344,2.5);
#128=CIRCLE('',#345,2.5);
#129=CIRCLE('',#347,2.5);
#130=CIRCLE('',#348,2.5);
#131=CIRCLE('',#349,2.5);
#132=CIRCLE('',#350,2.5);
#133=VERTEX_POINT('',#452);
#134=VERTEX_POINT('',#454);
#135=VERTEX_POINT('',#458);
#136=VERTEX_POINT('',#460);
#137=VERTEX_POINT('',#464);
#138=VERTEX_POINT('',#466);
#139=VERTEX_POINT('',#470);
#140=VERTEX_POINT('',#472);
#141=VERTEX_POINT('',#476);
#142=VERTEX_POINT('',#478);
#143=VERTEX_POINT('',#482);
#144=VERTEX_POINT('',#483);
#145=VERTEX_POINT('',#485);
#146=VERTEX_POINT('',#487);
#147=VERTEX_POINT('',#491);
#148=VERTEX_POINT('',#492);
#149=VERTEX_POINT('',#494);
#150=VERTEX_POINT('',#496);
#151=VERTEX_POINT('',#500);
#152=VERTEX_POINT('',#501);
#153=VERTEX_POINT('',#503);
#154=VERTEX_POINT('',#505);
#155=VERTEX_POINT('',#509);
#156=VERTEX_POINT('',#510);
#157=VERTEX_POINT('',#512);
#158=VERTEX_POINT('',#514);
#159=EDGE_CURVE('',#133,#133,#115,.T.);
#160=EDGE_CURVE('',#133,#134,#73,.T.);
#161=EDGE_CURVE('',#134,#134,#116,.T.);
#162=EDGE_CURVE('',#135,#135,#117,.T.);
#163=EDGE_CURVE('',#135,#136,#74,.T.);
#164=EDGE_CURVE('',#136,#136,#118,.T.);
#165=EDGE_CURVE('',#137,#137,#119,.T.);
#166=EDGE_CURVE('',#137,#138,#75,.T.);
#167=EDGE_CURVE('',#138,#138,#120,.T.);
#168=EDGE_CURVE('',#139,#139,#121,.T.);
#169=EDGE_CURVE('',#139,#140,#76,.T.);
#170=EDGE_CURVE('',#140,#140,#122,.T.);
#171=EDGE_CURVE('',#141,#141,#123,.T.);
#172=EDGE_CURVE('',#141,#142,#77,.T.);
#173=EDGE_CURVE('',#142,#142,#124,.T.);
#174=EDGE_CURVE('',#143,#144,#78,.T.);
#175=EDGE_CURVE('',#143,#145,#79,.T.);
#176=EDGE_CURVE('',#145,#146,#80,.T.);
#177=EDGE_CURVE('',#146,#144,#81,.T.);
#178=EDGE_CURVE('',#147,#148,#82,.T.);
#179=EDGE_CURVE('',#148,#149,#83,.T.);
#180=EDGE_CURVE('',#150,#149,#84,.T.);
#181=EDGE_CURVE('',#150,#147,#85,.T.);
#182=EDGE_CURVE('',#151,#152,#86,.T.);
#183=EDGE_CURVE('',#152,#153,#87,.T.);
#184=EDGE_CURVE('',#154,#153,#88,.T.);
#185=EDGE_CURVE('',#154,#151,#89,.T.);
#186=EDGE_CURVE('',#155,#156,#90,.T.);
#187=EDGE_CURVE('',#156,#157,#91,.T.);
#188=EDGE_CURVE('',#158,#157,#92,.T.);
#189=EDGE_CURVE('',#158,#155,#93,.T.);
#190=EDGE_CURVE('',#157,#143,#125,.T.);
#191=EDGE_CURVE('',#144,#150,#126,.T.);
#192=EDGE_CURVE('',#149,#154,#127,.T.);
#193=EDGE_CURVE('',#153,#158,#128,.T.);
#194=EDGE_CURVE('',#145,#156,#129,.T.);
#195=EDGE_CURVE('',#155,#152,#130,.T.);
#196=EDGE_CURVE('',#151,#148,#131,.T.);
#197=EDGE_CURVE('',#147,#146,#132,.T.);
#198=ORIENTED_EDGE('',*,*,#159,.F.);
#199=ORIENTED_EDGE('',*,*,#160,.T.);
#200=ORIENTED_EDGE('',*,*,#161,.T.);
#201=ORIENTED_EDGE('',*,*,#160,.F.);
#202=ORIENTED_EDGE('',*,*,#162,.F.);
#203=ORIENTED_EDGE('',*,*,#163,.T.);
#204=ORIENTED_EDGE('',*,*,#164,.T.);
#205=ORIENTED_EDGE('',*,*,#163,.F.);
#206=ORIENTED_EDGE('',*,*,#165,.T.);
#207=ORIENTED_EDGE('',*,*,#166,.T.);
#208=ORIENTED_EDGE('',*,*,#167,.T.);
#209=ORIENTED_EDGE('',*,*,#166,.F.);
#210=ORIENTED_EDGE('',*,*,#168,.F.);
#211=ORIENTED_EDGE('',*,*,#169,.T.);
#212=ORIENTED_EDGE('',*,*,#170,.T.);
#213=ORIENTED_EDGE('',*,*,#169,.F.);
#214=ORIENTED_EDGE('',*,*,#171,.T.);
#215=ORIENTED_EDGE('',*,*,#172,.T.);
#216=ORIENTED_EDGE('',*,*,#173,.T.);
#217=ORIENTED_EDGE('',*,*,#172,.F.);
#218=ORIENTED_EDGE('',*,*,#174,.F.);
#219=ORIENTED_EDGE('',*,*,#175,.T.);
#220=ORIENTED_EDGE('',*,*,#176,.T.);
#221=ORIENTED_EDGE('',*,*,#177,.T.);
#222=ORIENTED_EDGE('',*,*,#178,.T.);
#223=ORIENTED_EDGE('',*,*,#179,.T.);
#224=ORIENTED_EDGE('',*,*,#180,.F.);
#225=ORIENTED_EDGE('',*,*,#181,.T.);
#226=ORIENTED_EDGE('',*,*,#182,.T.);
#227=ORIENTED_EDGE('',*,*,#183,.T.);
#228=ORIENTED_EDGE('',*,*,#184,.F.);
#229=ORIENTED_EDGE('',*,*,#185,.T.);
#230=ORIENTED_EDGE('',*,*,#186,.T.);
#231=ORIENTED_EDGE('',*,*,#187,.T.);
#232=ORIENTED_EDGE('',*,*,#188,.F.);
#233=ORIENTED_EDGE('',*,*,#189,.T.);
#234=ORIENTED_EDGE('',*,*,#188,.T.);
#235=ORIENTED_EDGE('',*,*,#190,.T.);
#236=ORIENTED_EDGE('',*,*,#174,.T.);
#237=ORIENTED_EDGE('',*,*,#191,.T.);
#238=ORIENTED_EDGE('',*,*,#180,.T.);
#239=ORIENTED_EDGE('',*,*,#192,.T.);
#240=ORIENTED_EDGE('',*,*,#184,.T.);
#241=ORIENTED_EDGE('',*,*,#193,.T.);
#242=ORIENTED_EDGE('',*,*,#161,.F.);
#243=ORIENTED_EDGE('',*,*,#164,.F.);
#244=ORIENTED_EDGE('',*,*,#170,.F.);
#245=ORIENTED_EDGE('',*,*,#176,.F.);
#246=ORIENTED_EDGE('',*,*,#194,.T.);
#247=ORIENTED_EDGE('',*,*,#186,.F.);
#248=ORIENTED_EDGE('',*,*,#195,.T.);
#249=ORIENTED_EDGE('',*,*,#182,.F.);
#250=ORIENTED_EDGE('',*,*,#196,.T.);
#251=ORIENTED_EDGE('',*,*,#178,.F.);
#252=ORIENTED_EDGE('',*,*,#197,.T.);
#253=ORIENTED_EDGE('',*,*,#159,.T.);
#254=ORIENTED_EDGE('',*,*,#165,.F.);
#255=ORIENTED_EDGE('',*,*,#171,.F.);
#256=ORIENTED_EDGE('',*,*,#190,.F.);
#257=ORIENTED_EDGE('',*,*,#187,.F.);
#258=ORIENTED_EDGE('',*,*,#194,.F.);
#259=ORIENTED_EDGE('',*,*,#175,.F.);
#260=ORIENTED_EDGE('',*,*,#193,.F.);
#261=ORIENTED_EDGE('',*,*,#183,.F.);
#262=ORIENTED_EDGE('',*,*,#195,.F.);
#263=ORIENTED_EDGE('',*,*,#189,.F.);
#264=ORIENTED_EDGE('',*,*,#192,.F.);
#265=ORIENTED_EDGE('',*,*,#179,.F.);
#266=ORIENTED_EDGE('',*,*,#196,.F.);
#267=ORIENTED_EDGE('',*,*,#185,.F.);
#268=ORIENTED_EDGE('',*,*,#191,.F.);
#269=ORIENTED_EDGE('',*,*,#177,.F.);
#270=ORIENTED_EDGE('',*,*,#197,.F.);
#271=ORIENTED_EDGE('',*,*,#181,.F.);
#272=ORIENTED_EDGE('',*,*,#168,.T.);
#273=ORIENTED_EDGE('',*,*,#173,.F.);
#274=ORIENTED_EDGE('',*,*,#162,.T.);
#275=ORIENTED_EDGE('',*,*,#167,.F.);
#276=CYLINDRICAL_SURFACE('',#322,5.1);
#277=CYLINDRICAL_SURFACE('',#325,6.75);
#278=CYLINDRICAL_SURFACE('',#328,4.5);
#279=CYLINDRICAL_SURFACE('',#331,6.75);
#280=CYLINDRICAL_SURFACE('',#334,4.5);
#281=CYLINDRICAL_SURFACE('',#351,2.5);
#282=CYLINDRICAL_SURFACE('',#352,2.5);
#283=CYLINDRICAL_SURFACE('',#353,2.5);
#284=CYLINDRICAL_SURFACE('',#354,2.5);
#285=ADVANCED_FACE('',(#31),#276,.F.);
#286=ADVANCED_FACE('',(#32),#277,.F.);
#287=ADVANCED_FACE('',(#33),#278,.F.);
#288=ADVANCED_FACE('',(#34),#279,.F.);
#289=ADVANCED_FACE('',(#35),#280,.F.);
#290=ADVANCED_FACE('',(#36),#23,.F.);
#291=ADVANCED_FACE('',(#37),#24,.F.);
#292=ADVANCED_FACE('',(#38),#25,.F.);
#293=ADVANCED_FACE('',(#39),#26,.F.);
#294=ADVANCED_FACE('',(#40,#15,#16,#17),#27,.F.);
#295=ADVANCED_FACE('',(#41,#18,#19,#20),#28,.T.);
#296=ADVANCED_FACE('',(#42),#281,.T.);
#297=ADVANCED_FACE('',(#43),#282,.T.);
#298=ADVANCED_FACE('',(#44),#283,.T.);
#299=ADVANCED_FACE('',(#45),#284,.T.);
#300=ADVANCED_FACE('',(#46,#21),#29,.F.);
#301=ADVANCED_FACE('',(#47,#22),#30,.F.);
#302=CLOSED_SHELL('',(#285,#286,#287,#288,#289,#290,#291,#292,#293,#294,
#295,#296,#297,#298,#299,#300,#301));
#303=DERIVED_UNIT_ELEMENT(#305,1.);
#304=DERIVED_UNIT_ELEMENT(#538,-3.);
#305=(
MASS_UNIT()
NAMED_UNIT(*)
SI_UNIT($,.GRAM.)
);
#306=DERIVED_UNIT((#303,#304));
#307=MEASURE_REPRESENTATION_ITEM('density measure',
POSITIVE_RATIO_MEASURE(2.71),#306);
#308=PROPERTY_DEFINITION_REPRESENTATION(#313,#310);
#309=PROPERTY_DEFINITION_REPRESENTATION(#314,#311);
#310=REPRESENTATION('material name',(#312),#535);
#311=REPRESENTATION('density',(#307),#535);
#312=DESCRIPTIVE_REPRESENTATION_ITEM('Alluminio 6061','Alluminio 6061');
#313=PROPERTY_DEFINITION('material property','material name',#545);
#314=PROPERTY_DEFINITION('material property','density of part',#545);
#315=DATE_TIME_ROLE('creation_date');
#316=APPLIED_DATE_AND_TIME_ASSIGNMENT(#317,#315,(#545));
#317=DATE_AND_TIME(#318,#319);
#318=CALENDAR_DATE(2023,10,7);
#319=LOCAL_TIME(0,0,0.,#320);
#320=COORDINATED_UNIVERSAL_TIME_OFFSET(0,0,.BEHIND.);
#321=AXIS2_PLACEMENT_3D('placement',#450,#357,#358);
#322=AXIS2_PLACEMENT_3D('',#451,#359,#360);
#323=AXIS2_PLACEMENT_3D('',#453,#361,#362);
#324=AXIS2_PLACEMENT_3D('',#456,#364,#365);
#325=AXIS2_PLACEMENT_3D('',#457,#366,#367);
#326=AXIS2_PLACEMENT_3D('',#459,#368,#369);
#327=AXIS2_PLACEMENT_3D('',#462,#371,#372);
#328=AXIS2_PLACEMENT_3D('',#463,#373,#374);
#329=AXIS2_PLACEMENT_3D('',#465,#375,#376);
#330=AXIS2_PLACEMENT_3D('',#468,#378,#379);
#331=AXIS2_PLACEMENT_3D('',#469,#380,#381);
#332=AXIS2_PLACEMENT_3D('',#471,#382,#383);
#333=AXIS2_PLACEMENT_3D('',#474,#385,#386);
#334=AXIS2_PLACEMENT_3D('',#475,#387,#388);
#335=AXIS2_PLACEMENT_3D('',#477,#389,#390);
#336=AXIS2_PLACEMENT_3D('',#480,#392,#393);
#337=AXIS2_PLACEMENT_3D('',#481,#394,#395);
#338=AXIS2_PLACEMENT_3D('',#490,#400,#401);
#339=AXIS2_PLACEMENT_3D('',#499,#406,#407);
#340=AXIS2_PLACEMENT_3D('',#508,#412,#413);
#341=AXIS2_PLACEMENT_3D('',#517,#418,#419);
#342=AXIS2_PLACEMENT_3D('',#518,#420,#421);
#343=AXIS2_PLACEMENT_3D('',#519,#422,#423);
#344=AXIS2_PLACEMENT_3D('',#520,#424,#425);
#345=AXIS2_PLACEMENT_3D('',#521,#426,#427);
#346=AXIS2_PLACEMENT_3D('',#522,#428,#429);
#347=AXIS2_PLACEMENT_3D('',#523,#430,#431);
#348=AXIS2_PLACEMENT_3D('',#524,#432,#433);
#349=AXIS2_PLACEMENT_3D('',#525,#434,#435);
#350=AXIS2_PLACEMENT_3D('',#526,#436,#437);
#351=AXIS2_PLACEMENT_3D('',#527,#438,#439);
#352=AXIS2_PLACEMENT_3D('',#528,#440,#441);
#353=AXIS2_PLACEMENT_3D('',#529,#442,#443);
#354=AXIS2_PLACEMENT_3D('',#530,#444,#445);
#355=AXIS2_PLACEMENT_3D('',#531,#446,#447);
#356=AXIS2_PLACEMENT_3D('',#532,#448,#449);
#357=DIRECTION('axis',(0.,0.,1.));
#358=DIRECTION('refdir',(1.,0.,0.));
#359=DIRECTION('center_axis',(0.,1.,0.));
#360=DIRECTION('ref_axis',(0.,0.,1.));
#361=DIRECTION('center_axis',(0.,1.,0.));
#362=DIRECTION('ref_axis',(0.,0.,1.));
#363=DIRECTION('',(0.,1.,0.));
#364=DIRECTION('center_axis',(0.,1.,0.));
#365=DIRECTION('ref_axis',(0.,0.,1.));
#366=DIRECTION('center_axis',(0.,1.,0.));
#367=DIRECTION('ref_axis',(0.,0.,1.));
#368=DIRECTION('center_axis',(0.,1.,0.));
#369=DIRECTION('ref_axis',(0.,0.,1.));
#370=DIRECTION('',(0.,1.,0.));
#371=DIRECTION('center_axis',(0.,1.,0.));
#372=DIRECTION('ref_axis',(0.,0.,1.));
#373=DIRECTION('center_axis',(0.,1.,0.));
#374=DIRECTION('ref_axis',(0.,0.,1.));
#375=DIRECTION('center_axis',(0.,-1.,0.));
#376=DIRECTION('ref_axis',(0.,0.,-1.));
#377=DIRECTION('',(0.,1.,0.));
#378=DIRECTION('center_axis',(0.,1.,0.));
#379=DIRECTION('ref_axis',(0.,0.,1.));
#380=DIRECTION('center_axis',(0.,1.,0.));
#381=DIRECTION('ref_axis',(0.,0.,1.));
#382=DIRECTION('center_axis',(0.,1.,0.));
#383=DIRECTION('ref_axis',(0.,0.,1.));
#384=DIRECTION('',(0.,1.,0.));
#385=DIRECTION('center_axis',(0.,1.,0.));
#386=DIRECTION('ref_axis',(0.,0.,1.));
#387=DIRECTION('center_axis',(0.,1.,0.));
#388=DIRECTION('ref_axis',(0.,0.,1.));
#389=DIRECTION('center_axis',(0.,-1.,0.));
#390=DIRECTION('ref_axis',(0.,0.,-1.));
#391=DIRECTION('',(0.,1.,0.));
#392=DIRECTION('center_axis',(0.,1.,0.));
#393=DIRECTION('ref_axis',(0.,0.,1.));
#394=DIRECTION('center_axis',(1.,0.,0.));
#395=DIRECTION('ref_axis',(0.,0.,-1.));
#396=DIRECTION('',(0.,0.,1.));
#397=DIRECTION('',(0.,-1.,0.));
#398=DIRECTION('',(0.,0.,1.));
#399=DIRECTION('',(0.,1.,0.));
#400=DIRECTION('center_axis',(0.,0.,-1.));
#401=DIRECTION('ref_axis',(-1.,0.,0.));
#402=DIRECTION('',(1.,0.,0.));
#403=DIRECTION('',(0.,1.,0.));
#404=DIRECTION('',(1.,0.,0.));
#405=DIRECTION('',(0.,-1.,0.));
#406=DIRECTION('center_axis',(-1.,0.,0.));
#407=DIRECTION('ref_axis',(0.,0.,1.));
#408=DIRECTION('',(0.,0.,-1.));
#409=DIRECTION('',(0.,1.,0.));
#410=DIRECTION('',(0.,0.,-1.));
#411=DIRECTION('',(0.,-1.,0.));
#412=DIRECTION('center_axis',(0.,0.,1.));
#413=DIRECTION('ref_axis',(1.,0.,0.));
#414=DIRECTION('',(-1.,0.,0.));
#415=DIRECTION('',(0.,1.,0.));
#416=DIRECTION('',(-1.,0.,0.));
#417=DIRECTION('',(0.,-1.,0.));
#418=DIRECTION('center_axis',(0.,-1.,0.));
#419=DIRECTION('ref_axis',(0.,0.,-1.));
#420=DIRECTION('center_axis',(0.,1.,0.));
#421=DIRECTION('ref_axis',(0.,0.,-1.));
#422=DIRECTION('center_axis',(0.,1.,0.));
#423=DIRECTION('ref_axis',(0.,0.,-1.));
#424=DIRECTION('center_axis',(0.,1.,0.));
#425=DIRECTION('ref_axis',(0.,0.,-1.));
#426=DIRECTION('center_axis',(0.,1.,0.));
#427=DIRECTION('ref_axis',(2.77555756156289E-15,0.,-1.));
#428=DIRECTION('center_axis',(0.,-1.,0.));
#429=DIRECTION('ref_axis',(0.,0.,-1.));
#430=DIRECTION('center_axis',(0.,-1.,0.));
#431=DIRECTION('ref_axis',(0.,0.,-1.));
#432=DIRECTION('center_axis',(0.,-1.,0.));
#433=DIRECTION('ref_axis',(0.,0.,-1.));
#434=DIRECTION('center_axis',(0.,-1.,0.));
#435=DIRECTION('ref_axis',(0.,0.,-1.));
#436=DIRECTION('center_axis',(0.,-1.,0.));
#437=DIRECTION('ref_axis',(0.,0.,-1.));
#438=DIRECTION('center_axis',(0.,-1.,0.));
#439=DIRECTION('ref_axis',(0.,0.,-1.));
#440=DIRECTION('center_axis',(0.,-1.,0.));
#441=DIRECTION('ref_axis',(0.,0.,-1.));
#442=DIRECTION('center_axis',(0.,-1.,0.));
#443=DIRECTION('ref_axis',(0.,0.,-1.));
#444=DIRECTION('center_axis',(0.,-1.,0.));
#445=DIRECTION('ref_axis',(0.,0.,-1.));
#446=DIRECTION('center_axis',(0.,-1.,0.));
#447=DIRECTION('ref_axis',(0.,0.,-1.));
#448=DIRECTION('center_axis',(0.,-1.,0.));
#449=DIRECTION('ref_axis',(0.,0.,-1.));
#450=CARTESIAN_POINT('',(0.,0.,0.));
#451=CARTESIAN_POINT('Origin',(0.,12.,0.));
#452=CARTESIAN_POINT('',(-6.2456986756515E-16,0.,-5.1));
#453=CARTESIAN_POINT('Origin',(0.,0.,0.));
#454=CARTESIAN_POINT('',(-6.2456986756515E-16,12.,-5.1));
#455=CARTESIAN_POINT('',(-6.2456986756515E-16,12.,-5.1));
#456=CARTESIAN_POINT('Origin',(0.,12.,0.));
#457=CARTESIAN_POINT('Origin',(-20.,12.,0.));
#458=CARTESIAN_POINT('',(-20.,6.5,-6.75));
#459=CARTESIAN_POINT('Origin',(-20.,6.5,0.));
#460=CARTESIAN_POINT('',(-20.,12.,-6.75));
#461=CARTESIAN_POINT('',(-20.,12.,-6.75));
#462=CARTESIAN_POINT('Origin',(-20.,12.,0.));
#463=CARTESIAN_POINT('Origin',(-20.,12.,0.));
#464=CARTESIAN_POINT('',(-20.,0.,-4.5));
#465=CARTESIAN_POINT('Origin',(-20.,0.,0.));
#466=CARTESIAN_POINT('',(-20.,6.5,-4.5));
#467=CARTESIAN_POINT('',(-20.,12.,-4.5));
#468=CARTESIAN_POINT('Origin',(-20.,6.5,0.));
#469=CARTESIAN_POINT('Origin',(20.,12.,0.));
#470=CARTESIAN_POINT('',(20.,6.5,-6.75));
#471=CARTESIAN_POINT('Origin',(20.,6.5,0.));
#472=CARTESIAN_POINT('',(20.,12.,-6.75));
#473=CARTESIAN_POINT('',(20.,12.,-6.75));
#474=CARTESIAN_POINT('Origin',(20.,12.,0.));
#475=CARTESIAN_POINT('Origin',(20.,12.,0.));
#476=CARTESIAN_POINT('',(20.,0.,-4.5));
#477=CARTESIAN_POINT('Origin',(20.,0.,0.));
#478=CARTESIAN_POINT('',(20.,6.5,-4.5));
#479=CARTESIAN_POINT('',(20.,12.,-4.5));
#480=CARTESIAN_POINT('Origin',(20.,6.5,0.));
#481=CARTESIAN_POINT('Origin',(-40.,12.,20.));
#482=CARTESIAN_POINT('',(-40.,12.,-17.5));
#483=CARTESIAN_POINT('',(-40.,12.,17.5));
#484=CARTESIAN_POINT('',(-40.,12.,20.));
#485=CARTESIAN_POINT('',(-40.,0.,-17.5));
#486=CARTESIAN_POINT('',(-40.,12.,-17.5));
#487=CARTESIAN_POINT('',(-40.,0.,17.5));
#488=CARTESIAN_POINT('',(-40.,0.,20.));
#489=CARTESIAN_POINT('',(-40.,12.,17.5));
#490=CARTESIAN_POINT('Origin',(-40.,12.,20.));
#491=CARTESIAN_POINT('',(-37.5,0.,20.));
#492=CARTESIAN_POINT('',(37.5,0.,20.));
#493=CARTESIAN_POINT('',(-40.,0.,20.));
#494=CARTESIAN_POINT('',(37.5,12.,20.));
#495=CARTESIAN_POINT('',(37.5,12.,20.));
#496=CARTESIAN_POINT('',(-37.5,12.,20.));
#497=CARTESIAN_POINT('',(-40.,12.,20.));
#498=CARTESIAN_POINT('',(-37.5,12.,20.));
#499=CARTESIAN_POINT('Origin',(40.,12.,20.));
#500=CARTESIAN_POINT('',(40.,0.,17.5));
#501=CARTESIAN_POINT('',(40.,0.,-17.5));
#502=CARTESIAN_POINT('',(40.,0.,20.));
#503=CARTESIAN_POINT('',(40.,12.,-17.5));
#504=CARTESIAN_POINT('',(40.,12.,-17.5));
#505=CARTESIAN_POINT('',(40.,12.,17.5));
#506=CARTESIAN_POINT('',(40.,12.,20.));
#507=CARTESIAN_POINT('',(40.,12.,17.5));
#508=CARTESIAN_POINT('Origin',(-40.,12.,-20.));
#509=CARTESIAN_POINT('',(37.5,0.,-20.));
#510=CARTESIAN_POINT('',(-37.5,0.,-20.));
#511=CARTESIAN_POINT('',(-40.,0.,-20.));
#512=CARTESIAN_POINT('',(-37.5,12.,-20.));
#513=CARTESIAN_POINT('',(-37.5,12.,-20.));
#514=CARTESIAN_POINT('',(37.5,12.,-20.));
#515=CARTESIAN_POINT('',(-40.,12.,-20.));
#516=CARTESIAN_POINT('',(37.5,12.,-20.));
#517=CARTESIAN_POINT('Origin',(-40.,12.,-20.));
#518=CARTESIAN_POINT('Origin',(-37.5,12.,-17.5));
#519=CARTESIAN_POINT('Origin',(-37.5,12.,17.5));
#520=CARTESIAN_POINT('Origin',(37.5,12.,17.5));
#521=CARTESIAN_POINT('Origin',(37.5,12.,-17.5));
#522=CARTESIAN_POINT('Origin',(-40.,0.,-20.));
#523=CARTESIAN_POINT('Origin',(-37.5,0.,-17.5));
#524=CARTESIAN_POINT('Origin',(37.5,0.,-17.5));
#525=CARTESIAN_POINT('Origin',(37.5,0.,17.5));
#526=CARTESIAN_POINT('Origin',(-37.5,0.,17.5));
#527=CARTESIAN_POINT('Origin',(-37.5,12.,-17.5));
#528=CARTESIAN_POINT('Origin',(37.5,12.,-17.5));
#529=CARTESIAN_POINT('Origin',(37.5,12.,17.5));
#530=CARTESIAN_POINT('Origin',(-37.5,12.,17.5));
#531=CARTESIAN_POINT('Origin',(24.5,6.5,0.));
#532=CARTESIAN_POINT('Origin',(-15.5,6.5,0.));
#533=UNCERTAINTY_MEASURE_WITH_UNIT(LENGTH_MEASURE(0.01),#537,
'DISTANCE_ACCURACY_VALUE',
'Maximum model space distance between geometric entities at asserted c
onnectivities');
#534=UNCERTAINTY_MEASURE_WITH_UNIT(LENGTH_MEASURE(0.01),#537,
'DISTANCE_ACCURACY_VALUE',
'Maximum model space distance between geometric entities at asserted c
onnectivities');
#535=(
GEOMETRIC_REPRESENTATION_CONTEXT(3)
GLOBAL_UNCERTAINTY_ASSIGNED_CONTEXT((#533))
GLOBAL_UNIT_ASSIGNED_CONTEXT((#537,#539,#540))
REPRESENTATION_CONTEXT('','3D')
);
#536=(
GEOMETRIC_REPRESENTATION_CONTEXT(3)
GLOBAL_UNCERTAINTY_ASSIGNED_CONTEXT((#534))
GLOBAL_UNIT_ASSIGNED_CONTEXT((#537,#539,#540))
REPRESENTATION_CONTEXT('','3D')
);
#537=(
LENGTH_UNIT()
NAMED_UNIT(*)
SI_UNIT(.MILLI.,.METRE.)
);
#538=(
LENGTH_UNIT()
NAMED_UNIT(*)
SI_UNIT(.CENTI.,.METRE.)
);
#539=(
NAMED_UNIT(*)
PLANE_ANGLE_UNIT()
SI_UNIT($,.RADIAN.)
);
#540=(
NAMED_UNIT(*)
SI_UNIT($,.STERADIAN.)
SOLID_ANGLE_UNIT()
);
#541=SHAPE_DEFINITION_REPRESENTATION(#542,#543);
#542=PRODUCT_DEFINITION_SHAPE('',$,#545);
#543=SHAPE_REPRESENTATION('',(#321),#535);
#544=PRODUCT_DEFINITION_CONTEXT('part definition',#549,'design');
#545=PRODUCT_DEFINITION('MPT40-80M12','MPT40-80M12',#546,#544);
#546=PRODUCT_DEFINITION_FORMATION('A00',$,#551);
#547=PRODUCT_RELATED_PRODUCT_CATEGORY('MPT40-80M12','MPT40-80M12',(#551));
#548=APPLICATION_PROTOCOL_DEFINITION('international standard',
'automotive_design',2009,#549);
#549=APPLICATION_CONTEXT(
'Core Data for Automotive Mechanical Design Process');
#550=PRODUCT_CONTEXT('part definition',#549,'mechanical');
#551=PRODUCT('MPT40-80M12','MPT40-80M12',
'Piastra piedino M12 per profilo 40x80',(#550));
#552=PRESENTATION_STYLE_ASSIGNMENT((#554));
#553=PRESENTATION_STYLE_ASSIGNMENT((#555));
#554=SURFACE_STYLE_USAGE(.BOTH.,#558);
#555=SURFACE_STYLE_USAGE(.BOTH.,#559);
#556=SURFACE_STYLE_RENDERING_WITH_PROPERTIES($,#566,(#557));
#557=SURFACE_STYLE_TRANSPARENT(0.);
#558=SURFACE_SIDE_STYLE('',(#560,#556));
#559=SURFACE_SIDE_STYLE('',(#561));
#560=SURFACE_STYLE_FILL_AREA(#562);
#561=SURFACE_STYLE_FILL_AREA(#563);
#562=FILL_AREA_STYLE('',(#564));
#563=FILL_AREA_STYLE('',(#565));
#564=FILL_AREA_STYLE_COLOUR('',#566);
#565=FILL_AREA_STYLE_COLOUR('',#567);
#566=COLOUR_RGB('',0.996078431372549,0.996078431372549,1.);
#567=COLOUR_RGB('',1.,1.,0.);
ENDSEC;
END-ISO-10303-21;
