ISO-10303-21;
HEADER;
/* Generated by software containing ST-Developer
 * from STEP Tools, Inc. (www.steptools.com) 
 */

FILE_DESCRIPTION(
/* description */ ('STEP AP203'),
/* implementation_level */ '2;1');

FILE_NAME(
/* name */ 
'C:\\Users\\Stefan.Nesic\\Desktop\\01010STEP\\000Verifica\\CORRETTI\\M
PG45-90G38.stp',
/* time_stamp */ '2022-07-11T16:50:50+02:00',
/* author */ (''),
/* organization */ (''),
/* preprocessor_version */ 'ST-DEVELOPER v18.1',
/* originating_system */ 'Autodesk Inventor 2021',
/* authorisation */ '');

FILE_SCHEMA (('AUTOMOTIVE_DESIGN { 1 0 10303 214 3 1 1 }'));
ENDSEC;

DATA;
#10=MECHANICAL_DESIGN_GEOMETRIC_PRESENTATION_REPRESENTATION('',(#13),#626);
#11=SHAPE_REPRESENTATION_RELATIONSHIP('SRR','None',#633,#12);
#12=ADVANCED_BREP_SHAPE_REPRESENTATION('',(#14),#625);
#13=STYLED_ITEM('',(#642),#14);
#14=MANIFOLD_SOLID_BREP('Solido1',#352);
#15=FACE_BOUND('',#64,.T.);
#16=FACE_BOUND('',#66,.T.);
#17=FACE_BOUND('',#67,.T.);
#18=FACE_BOUND('',#68,.T.);
#19=FACE_BOUND('',#70,.T.);
#20=FACE_BOUND('',#71,.T.);
#21=FACE_BOUND('',#72,.T.);
#22=FACE_BOUND('',#82,.T.);
#23=FACE_BOUND('',#84,.T.);
#24=FACE_BOUND('',#86,.T.);
#25=PLANE('',#393);
#26=PLANE('',#394);
#27=PLANE('',#399);
#28=PLANE('',#404);
#29=PLANE('',#405);
#30=PLANE('',#406);
#31=PLANE('',#407);
#32=PLANE('',#412);
#33=PLANE('',#413);
#34=PLANE('',#414);
#35=FACE_OUTER_BOUND('',#56,.T.);
#36=FACE_OUTER_BOUND('',#57,.T.);
#37=FACE_OUTER_BOUND('',#58,.T.);
#38=FACE_OUTER_BOUND('',#59,.T.);
#39=FACE_OUTER_BOUND('',#60,.T.);
#40=FACE_OUTER_BOUND('',#61,.T.);
#41=FACE_OUTER_BOUND('',#62,.T.);
#42=FACE_OUTER_BOUND('',#63,.T.);
#43=FACE_OUTER_BOUND('',#65,.T.);
#44=FACE_OUTER_BOUND('',#69,.T.);
#45=FACE_OUTER_BOUND('',#73,.T.);
#46=FACE_OUTER_BOUND('',#74,.T.);
#47=FACE_OUTER_BOUND('',#75,.T.);
#48=FACE_OUTER_BOUND('',#76,.T.);
#49=FACE_OUTER_BOUND('',#77,.T.);
#50=FACE_OUTER_BOUND('',#78,.T.);
#51=FACE_OUTER_BOUND('',#79,.T.);
#52=FACE_OUTER_BOUND('',#80,.T.);
#53=FACE_OUTER_BOUND('',#81,.T.);
#54=FACE_OUTER_BOUND('',#83,.T.);
#55=FACE_OUTER_BOUND('',#85,.T.);
#56=EDGE_LOOP('',(#230,#231,#232,#233));
#57=EDGE_LOOP('',(#234,#235,#236,#237));
#58=EDGE_LOOP('',(#238,#239,#240,#241));
#59=EDGE_LOOP('',(#242,#243,#244,#245));
#60=EDGE_LOOP('',(#246,#247,#248,#249));
#61=EDGE_LOOP('',(#250,#251,#252,#253));
#62=EDGE_LOOP('',(#254,#255,#256,#257));
#63=EDGE_LOOP('',(#258));
#64=EDGE_LOOP('',(#259));
#65=EDGE_LOOP('',(#260,#261,#262,#263,#264,#265,#266,#267));
#66=EDGE_LOOP('',(#268));
#67=EDGE_LOOP('',(#269));
#68=EDGE_LOOP('',(#270));
#69=EDGE_LOOP('',(#271,#272,#273,#274,#275,#276,#277,#278));
#70=EDGE_LOOP('',(#279));
#71=EDGE_LOOP('',(#280));
#72=EDGE_LOOP('',(#281));
#73=EDGE_LOOP('',(#282,#283,#284,#285));
#74=EDGE_LOOP('',(#286,#287,#288,#289));
#75=EDGE_LOOP('',(#290,#291,#292,#293));
#76=EDGE_LOOP('',(#294,#295,#296,#297));
#77=EDGE_LOOP('',(#298,#299,#300,#301));
#78=EDGE_LOOP('',(#302,#303,#304,#305));
#79=EDGE_LOOP('',(#306,#307,#308,#309));
#80=EDGE_LOOP('',(#310,#311,#312,#313));
#81=EDGE_LOOP('',(#314));
#82=EDGE_LOOP('',(#315));
#83=EDGE_LOOP('',(#316));
#84=EDGE_LOOP('',(#317));
#85=EDGE_LOOP('',(#318));
#86=EDGE_LOOP('',(#319));
#87=LINE('',#531,#110);
#88=LINE('',#537,#111);
#89=LINE('',#543,#112);
#90=LINE('',#549,#113);
#91=LINE('',#555,#114);
#92=LINE('',#561,#115);
#93=LINE('',#567,#116);
#94=LINE('',#573,#117);
#95=LINE('',#577,#118);
#96=LINE('',#581,#119);
#97=LINE('',#585,#120);
#98=LINE('',#590,#121);
#99=LINE('',#594,#122);
#100=LINE('',#598,#123);
#101=LINE('',#602,#124);
#102=LINE('',#605,#125);
#103=LINE('',#606,#126);
#104=LINE('',#608,#127);
#105=LINE('',#609,#128);
#106=LINE('',#611,#129);
#107=LINE('',#612,#130);
#108=LINE('',#614,#131);
#109=LINE('',#615,#132);
#110=VECTOR('',#421,10.);
#111=VECTOR('',#428,14.5);
#112=VECTOR('',#435,6.75);
#113=VECTOR('',#442,4.5);
#114=VECTOR('',#449,6.75);
#115=VECTOR('',#456,4.5);
#116=VECTOR('',#463,7.625);
#117=VECTOR('',#470,1000.);
#118=VECTOR('',#473,1000.);
#119=VECTOR('',#476,1000.);
#120=VECTOR('',#479,1000.);
#121=VECTOR('',#484,1000.);
#122=VECTOR('',#487,1000.);
#123=VECTOR('',#490,1000.);
#124=VECTOR('',#493,1000.);
#125=VECTOR('',#498,1000.);
#126=VECTOR('',#499,1000.);
#127=VECTOR('',#502,1000.);
#128=VECTOR('',#503,1000.);
#129=VECTOR('',#506,1000.);
#130=VECTOR('',#507,1000.);
#131=VECTOR('',#510,1000.);
#132=VECTOR('',#511,1000.);
#133=CIRCLE('',#373,10.);
#134=CIRCLE('',#374,10.);
#135=CIRCLE('',#376,14.5);
#136=CIRCLE('',#377,14.5);
#137=CIRCLE('',#379,6.75);
#138=CIRCLE('',#380,6.75);
#139=CIRCLE('',#382,4.5);
#140=CIRCLE('',#383,4.5);
#141=CIRCLE('',#385,6.75);
#142=CIRCLE('',#386,6.75);
#143=CIRCLE('',#388,4.5);
#144=CIRCLE('',#389,4.5);
#145=CIRCLE('',#391,7.625);
#146=CIRCLE('',#392,7.625);
#147=CIRCLE('',#395,2.5);
#148=CIRCLE('',#396,2.5);
#149=CIRCLE('',#397,2.5);
#150=CIRCLE('',#398,2.5);
#151=CIRCLE('',#400,2.5);
#152=CIRCLE('',#401,2.5);
#153=CIRCLE('',#402,2.5);
#154=CIRCLE('',#403,2.5);
#155=VERTEX_POINT('',#528);
#156=VERTEX_POINT('',#530);
#157=VERTEX_POINT('',#534);
#158=VERTEX_POINT('',#536);
#159=VERTEX_POINT('',#540);
#160=VERTEX_POINT('',#542);
#161=VERTEX_POINT('',#546);
#162=VERTEX_POINT('',#548);
#163=VERTEX_POINT('',#552);
#164=VERTEX_POINT('',#554);
#165=VERTEX_POINT('',#558);
#166=VERTEX_POINT('',#560);
#167=VERTEX_POINT('',#564);
#168=VERTEX_POINT('',#566);
#169=VERTEX_POINT('',#571);
#170=VERTEX_POINT('',#572);
#171=VERTEX_POINT('',#574);
#172=VERTEX_POINT('',#576);
#173=VERTEX_POINT('',#578);
#174=VERTEX_POINT('',#580);
#175=VERTEX_POINT('',#582);
#176=VERTEX_POINT('',#584);
#177=VERTEX_POINT('',#588);
#178=VERTEX_POINT('',#589);
#179=VERTEX_POINT('',#591);
#180=VERTEX_POINT('',#593);
#181=VERTEX_POINT('',#595);
#182=VERTEX_POINT('',#597);
#183=VERTEX_POINT('',#599);
#184=VERTEX_POINT('',#601);
#185=EDGE_CURVE('',#155,#155,#133,.T.);
#186=EDGE_CURVE('',#155,#156,#87,.T.);
#187=EDGE_CURVE('',#156,#156,#134,.T.);
#188=EDGE_CURVE('',#157,#157,#135,.T.);
#189=EDGE_CURVE('',#157,#158,#88,.T.);
#190=EDGE_CURVE('',#158,#158,#136,.T.);
#191=EDGE_CURVE('',#159,#159,#137,.T.);
#192=EDGE_CURVE('',#159,#160,#89,.T.);
#193=EDGE_CURVE('',#160,#160,#138,.T.);
#194=EDGE_CURVE('',#161,#161,#139,.T.);
#195=EDGE_CURVE('',#161,#162,#90,.T.);
#196=EDGE_CURVE('',#162,#162,#140,.T.);
#197=EDGE_CURVE('',#163,#163,#141,.T.);
#198=EDGE_CURVE('',#163,#164,#91,.T.);
#199=EDGE_CURVE('',#164,#164,#142,.T.);
#200=EDGE_CURVE('',#165,#165,#143,.T.);
#201=EDGE_CURVE('',#165,#166,#92,.T.);
#202=EDGE_CURVE('',#166,#166,#144,.T.);
#203=EDGE_CURVE('',#167,#167,#145,.T.);
#204=EDGE_CURVE('',#167,#168,#93,.T.);
#205=EDGE_CURVE('',#168,#168,#146,.T.);
#206=EDGE_CURVE('',#169,#170,#94,.T.);
#207=EDGE_CURVE('',#170,#171,#147,.T.);
#208=EDGE_CURVE('',#171,#172,#95,.T.);
#209=EDGE_CURVE('',#172,#173,#148,.T.);
#210=EDGE_CURVE('',#173,#174,#96,.T.);
#211=EDGE_CURVE('',#174,#175,#149,.T.);
#212=EDGE_CURVE('',#175,#176,#97,.T.);
#213=EDGE_CURVE('',#176,#169,#150,.T.);
#214=EDGE_CURVE('',#177,#178,#98,.T.);
#215=EDGE_CURVE('',#177,#179,#151,.T.);
#216=EDGE_CURVE('',#180,#179,#99,.T.);
#217=EDGE_CURVE('',#180,#181,#152,.T.);
#218=EDGE_CURVE('',#182,#181,#100,.T.);
#219=EDGE_CURVE('',#182,#183,#153,.T.);
#220=EDGE_CURVE('',#184,#183,#101,.T.);
#221=EDGE_CURVE('',#184,#178,#154,.T.);
#222=EDGE_CURVE('',#171,#177,#102,.T.);
#223=EDGE_CURVE('',#178,#172,#103,.T.);
#224=EDGE_CURVE('',#183,#174,#104,.T.);
#225=EDGE_CURVE('',#173,#184,#105,.T.);
#226=EDGE_CURVE('',#181,#176,#106,.T.);
#227=EDGE_CURVE('',#175,#182,#107,.T.);
#228=EDGE_CURVE('',#179,#170,#108,.T.);
#229=EDGE_CURVE('',#169,#180,#109,.T.);
#230=ORIENTED_EDGE('',*,*,#185,.F.);
#231=ORIENTED_EDGE('',*,*,#186,.T.);
#232=ORIENTED_EDGE('',*,*,#187,.T.);
#233=ORIENTED_EDGE('',*,*,#186,.F.);
#234=ORIENTED_EDGE('',*,*,#188,.F.);
#235=ORIENTED_EDGE('',*,*,#189,.T.);
#236=ORIENTED_EDGE('',*,*,#190,.T.);
#237=ORIENTED_EDGE('',*,*,#189,.F.);
#238=ORIENTED_EDGE('',*,*,#191,.F.);
#239=ORIENTED_EDGE('',*,*,#192,.T.);
#240=ORIENTED_EDGE('',*,*,#193,.T.);
#241=ORIENTED_EDGE('',*,*,#192,.F.);
#242=ORIENTED_EDGE('',*,*,#194,.T.);
#243=ORIENTED_EDGE('',*,*,#195,.T.);
#244=ORIENTED_EDGE('',*,*,#196,.T.);
#245=ORIENTED_EDGE('',*,*,#195,.F.);
#246=ORIENTED_EDGE('',*,*,#197,.F.);
#247=ORIENTED_EDGE('',*,*,#198,.T.);
#248=ORIENTED_EDGE('',*,*,#199,.T.);
#249=ORIENTED_EDGE('',*,*,#198,.F.);
#250=ORIENTED_EDGE('',*,*,#200,.T.);
#251=ORIENTED_EDGE('',*,*,#201,.T.);
#252=ORIENTED_EDGE('',*,*,#202,.T.);
#253=ORIENTED_EDGE('',*,*,#201,.F.);
#254=ORIENTED_EDGE('',*,*,#203,.T.);
#255=ORIENTED_EDGE('',*,*,#204,.T.);
#256=ORIENTED_EDGE('',*,*,#205,.F.);
#257=ORIENTED_EDGE('',*,*,#204,.F.);
#258=ORIENTED_EDGE('',*,*,#185,.T.);
#259=ORIENTED_EDGE('',*,*,#205,.T.);
#260=ORIENTED_EDGE('',*,*,#206,.T.);
#261=ORIENTED_EDGE('',*,*,#207,.T.);
#262=ORIENTED_EDGE('',*,*,#208,.T.);
#263=ORIENTED_EDGE('',*,*,#209,.T.);
#264=ORIENTED_EDGE('',*,*,#210,.T.);
#265=ORIENTED_EDGE('',*,*,#211,.T.);
#266=ORIENTED_EDGE('',*,*,#212,.T.);
#267=ORIENTED_EDGE('',*,*,#213,.T.);
#268=ORIENTED_EDGE('',*,*,#199,.F.);
#269=ORIENTED_EDGE('',*,*,#193,.F.);
#270=ORIENTED_EDGE('',*,*,#203,.F.);
#271=ORIENTED_EDGE('',*,*,#214,.F.);
#272=ORIENTED_EDGE('',*,*,#215,.T.);
#273=ORIENTED_EDGE('',*,*,#216,.F.);
#274=ORIENTED_EDGE('',*,*,#217,.T.);
#275=ORIENTED_EDGE('',*,*,#218,.F.);
#276=ORIENTED_EDGE('',*,*,#219,.T.);
#277=ORIENTED_EDGE('',*,*,#220,.F.);
#278=ORIENTED_EDGE('',*,*,#221,.T.);
#279=ORIENTED_EDGE('',*,*,#190,.F.);
#280=ORIENTED_EDGE('',*,*,#194,.F.);
#281=ORIENTED_EDGE('',*,*,#200,.F.);
#282=ORIENTED_EDGE('',*,*,#208,.F.);
#283=ORIENTED_EDGE('',*,*,#222,.T.);
#284=ORIENTED_EDGE('',*,*,#214,.T.);
#285=ORIENTED_EDGE('',*,*,#223,.T.);
#286=ORIENTED_EDGE('',*,*,#220,.T.);
#287=ORIENTED_EDGE('',*,*,#224,.T.);
#288=ORIENTED_EDGE('',*,*,#210,.F.);
#289=ORIENTED_EDGE('',*,*,#225,.T.);
#290=ORIENTED_EDGE('',*,*,#218,.T.);
#291=ORIENTED_EDGE('',*,*,#226,.T.);
#292=ORIENTED_EDGE('',*,*,#212,.F.);
#293=ORIENTED_EDGE('',*,*,#227,.T.);
#294=ORIENTED_EDGE('',*,*,#216,.T.);
#295=ORIENTED_EDGE('',*,*,#228,.T.);
#296=ORIENTED_EDGE('',*,*,#206,.F.);
#297=ORIENTED_EDGE('',*,*,#229,.T.);
#298=ORIENTED_EDGE('',*,*,#207,.F.);
#299=ORIENTED_EDGE('',*,*,#228,.F.);
#300=ORIENTED_EDGE('',*,*,#215,.F.);
#301=ORIENTED_EDGE('',*,*,#222,.F.);
#302=ORIENTED_EDGE('',*,*,#213,.F.);
#303=ORIENTED_EDGE('',*,*,#226,.F.);
#304=ORIENTED_EDGE('',*,*,#217,.F.);
#305=ORIENTED_EDGE('',*,*,#229,.F.);
#306=ORIENTED_EDGE('',*,*,#211,.F.);
#307=ORIENTED_EDGE('',*,*,#224,.F.);
#308=ORIENTED_EDGE('',*,*,#219,.F.);
#309=ORIENTED_EDGE('',*,*,#227,.F.);
#310=ORIENTED_EDGE('',*,*,#209,.F.);
#311=ORIENTED_EDGE('',*,*,#223,.F.);
#312=ORIENTED_EDGE('',*,*,#221,.F.);
#313=ORIENTED_EDGE('',*,*,#225,.F.);
#314=ORIENTED_EDGE('',*,*,#197,.T.);
#315=ORIENTED_EDGE('',*,*,#202,.F.);
#316=ORIENTED_EDGE('',*,*,#191,.T.);
#317=ORIENTED_EDGE('',*,*,#196,.F.);
#318=ORIENTED_EDGE('',*,*,#188,.T.);
#319=ORIENTED_EDGE('',*,*,#187,.F.);
#320=CYLINDRICAL_SURFACE('',#372,10.);
#321=CYLINDRICAL_SURFACE('',#375,14.5);
#322=CYLINDRICAL_SURFACE('',#378,6.75);
#323=CYLINDRICAL_SURFACE('',#381,4.5);
#324=CYLINDRICAL_SURFACE('',#384,6.75);
#325=CYLINDRICAL_SURFACE('',#387,4.5);
#326=CYLINDRICAL_SURFACE('',#390,7.625);
#327=CYLINDRICAL_SURFACE('',#408,2.5);
#328=CYLINDRICAL_SURFACE('',#409,2.5);
#329=CYLINDRICAL_SURFACE('',#410,2.5);
#330=CYLINDRICAL_SURFACE('',#411,2.5);
#331=ADVANCED_FACE('',(#35),#320,.T.);
#332=ADVANCED_FACE('',(#36),#321,.F.);
#333=ADVANCED_FACE('',(#37),#322,.F.);
#334=ADVANCED_FACE('',(#38),#323,.F.);
#335=ADVANCED_FACE('',(#39),#324,.F.);
#336=ADVANCED_FACE('',(#40),#325,.F.);
#337=ADVANCED_FACE('',(#41),#326,.F.);
#338=ADVANCED_FACE('',(#42,#15),#25,.T.);
#339=ADVANCED_FACE('',(#43,#16,#17,#18),#26,.F.);
#340=ADVANCED_FACE('',(#44,#19,#20,#21),#27,.T.);
#341=ADVANCED_FACE('',(#45),#28,.F.);
#342=ADVANCED_FACE('',(#46),#29,.F.);
#343=ADVANCED_FACE('',(#47),#30,.F.);
#344=ADVANCED_FACE('',(#48),#31,.F.);
#345=ADVANCED_FACE('',(#49),#327,.T.);
#346=ADVANCED_FACE('',(#50),#328,.T.);
#347=ADVANCED_FACE('',(#51),#329,.T.);
#348=ADVANCED_FACE('',(#52),#330,.T.);
#349=ADVANCED_FACE('',(#53,#22),#32,.F.);
#350=ADVANCED_FACE('',(#54,#23),#33,.F.);
#351=ADVANCED_FACE('',(#55,#24),#34,.T.);
#352=CLOSED_SHELL('',(#331,#332,#333,#334,#335,#336,#337,#338,#339,#340,
#341,#342,#343,#344,#345,#346,#347,#348,#349,#350,#351));
#353=DERIVED_UNIT_ELEMENT(#355,1.);
#354=DERIVED_UNIT_ELEMENT(#628,-3.);
#355=(
MASS_UNIT()
NAMED_UNIT(*)
SI_UNIT($,.GRAM.)
);
#356=DERIVED_UNIT((#353,#354));
#357=MEASURE_REPRESENTATION_ITEM('density measure',
POSITIVE_RATIO_MEASURE(1.),#356);
#358=PROPERTY_DEFINITION_REPRESENTATION(#363,#360);
#359=PROPERTY_DEFINITION_REPRESENTATION(#364,#361);
#360=REPRESENTATION('material name',(#362),#625);
#361=REPRESENTATION('density',(#357),#625);
#362=DESCRIPTIVE_REPRESENTATION_ITEM('Generico','Generico');
#363=PROPERTY_DEFINITION('material property','material name',#635);
#364=PROPERTY_DEFINITION('material property','density of part',#635);
#365=DATE_TIME_ROLE('creation_date');
#366=APPLIED_DATE_AND_TIME_ASSIGNMENT(#367,#365,(#635));
#367=DATE_AND_TIME(#368,#369);
#368=CALENDAR_DATE(2013,28,1);
#369=LOCAL_TIME(8,9,31.,#370);
#370=COORDINATED_UNIVERSAL_TIME_OFFSET(0,0,.BEHIND.);
#371=AXIS2_PLACEMENT_3D('placement',#526,#415,#416);
#372=AXIS2_PLACEMENT_3D('',#527,#417,#418);
#373=AXIS2_PLACEMENT_3D('',#529,#419,#420);
#374=AXIS2_PLACEMENT_3D('',#532,#422,#423);
#375=AXIS2_PLACEMENT_3D('',#533,#424,#425);
#376=AXIS2_PLACEMENT_3D('',#535,#426,#427);
#377=AXIS2_PLACEMENT_3D('',#538,#429,#430);
#378=AXIS2_PLACEMENT_3D('',#539,#431,#432);
#379=AXIS2_PLACEMENT_3D('',#541,#433,#434);
#380=AXIS2_PLACEMENT_3D('',#544,#436,#437);
#381=AXIS2_PLACEMENT_3D('',#545,#438,#439);
#382=AXIS2_PLACEMENT_3D('',#547,#440,#441);
#383=AXIS2_PLACEMENT_3D('',#550,#443,#444);
#384=AXIS2_PLACEMENT_3D('',#551,#445,#446);
#385=AXIS2_PLACEMENT_3D('',#553,#447,#448);
#386=AXIS2_PLACEMENT_3D('',#556,#450,#451);
#387=AXIS2_PLACEMENT_3D('',#557,#452,#453);
#388=AXIS2_PLACEMENT_3D('',#559,#454,#455);
#389=AXIS2_PLACEMENT_3D('',#562,#457,#458);
#390=AXIS2_PLACEMENT_3D('',#563,#459,#460);
#391=AXIS2_PLACEMENT_3D('',#565,#461,#462);
#392=AXIS2_PLACEMENT_3D('',#568,#464,#465);
#393=AXIS2_PLACEMENT_3D('',#569,#466,#467);
#394=AXIS2_PLACEMENT_3D('',#570,#468,#469);
#395=AXIS2_PLACEMENT_3D('',#575,#471,#472);
#396=AXIS2_PLACEMENT_3D('',#579,#474,#475);
#397=AXIS2_PLACEMENT_3D('',#583,#477,#478);
#398=AXIS2_PLACEMENT_3D('',#586,#480,#481);
#399=AXIS2_PLACEMENT_3D('',#587,#482,#483);
#400=AXIS2_PLACEMENT_3D('',#592,#485,#486);
#401=AXIS2_PLACEMENT_3D('',#596,#488,#489);
#402=AXIS2_PLACEMENT_3D('',#600,#491,#492);
#403=AXIS2_PLACEMENT_3D('',#603,#494,#495);
#404=AXIS2_PLACEMENT_3D('',#604,#496,#497);
#405=AXIS2_PLACEMENT_3D('',#607,#500,#501);
#406=AXIS2_PLACEMENT_3D('',#610,#504,#505);
#407=AXIS2_PLACEMENT_3D('',#613,#508,#509);
#408=AXIS2_PLACEMENT_3D('',#616,#512,#513);
#409=AXIS2_PLACEMENT_3D('',#617,#514,#515);
#410=AXIS2_PLACEMENT_3D('',#618,#516,#517);
#411=AXIS2_PLACEMENT_3D('',#619,#518,#519);
#412=AXIS2_PLACEMENT_3D('',#620,#520,#521);
#413=AXIS2_PLACEMENT_3D('',#621,#522,#523);
#414=AXIS2_PLACEMENT_3D('',#622,#524,#525);
#415=DIRECTION('axis',(0.,0.,1.));
#416=DIRECTION('refdir',(1.,0.,0.));
#417=DIRECTION('center_axis',(0.,-1.,0.));
#418=DIRECTION('ref_axis',(0.,0.,-1.));
#419=DIRECTION('center_axis',(0.,-1.,0.));
#420=DIRECTION('ref_axis',(0.,0.,-1.));
#421=DIRECTION('',(0.,1.,0.));
#422=DIRECTION('center_axis',(0.,-1.,0.));
#423=DIRECTION('ref_axis',(0.,0.,-1.));
#424=DIRECTION('center_axis',(0.,-1.,0.));
#425=DIRECTION('ref_axis',(0.,0.,-1.));
#426=DIRECTION('center_axis',(0.,-1.,0.));
#427=DIRECTION('ref_axis',(0.,0.,-1.));
#428=DIRECTION('',(0.,-1.,0.));
#429=DIRECTION('center_axis',(0.,-1.,0.));
#430=DIRECTION('ref_axis',(0.,0.,-1.));
#431=DIRECTION('center_axis',(0.,1.,0.));
#432=DIRECTION('ref_axis',(0.,0.,1.));
#433=DIRECTION('center_axis',(0.,1.,0.));
#434=DIRECTION('ref_axis',(0.,0.,1.));
#435=DIRECTION('',(0.,1.,0.));
#436=DIRECTION('center_axis',(0.,1.,0.));
#437=DIRECTION('ref_axis',(0.,0.,1.));
#438=DIRECTION('center_axis',(0.,1.,0.));
#439=DIRECTION('ref_axis',(0.,0.,1.));
#440=DIRECTION('center_axis',(0.,-1.,0.));
#441=DIRECTION('ref_axis',(0.,0.,-1.));
#442=DIRECTION('',(0.,1.,0.));
#443=DIRECTION('center_axis',(0.,1.,0.));
#444=DIRECTION('ref_axis',(0.,0.,1.));
#445=DIRECTION('center_axis',(0.,1.,0.));
#446=DIRECTION('ref_axis',(0.,0.,1.));
#447=DIRECTION('center_axis',(0.,1.,0.));
#448=DIRECTION('ref_axis',(0.,0.,1.));
#449=DIRECTION('',(0.,1.,0.));
#450=DIRECTION('center_axis',(0.,1.,0.));
#451=DIRECTION('ref_axis',(0.,0.,1.));
#452=DIRECTION('center_axis',(0.,1.,0.));
#453=DIRECTION('ref_axis',(0.,0.,1.));
#454=DIRECTION('center_axis',(0.,-1.,0.));
#455=DIRECTION('ref_axis',(0.,0.,-1.));
#456=DIRECTION('',(0.,1.,0.));
#457=DIRECTION('center_axis',(0.,1.,0.));
#458=DIRECTION('ref_axis',(0.,0.,1.));
#459=DIRECTION('center_axis',(0.,-1.,0.));
#460=DIRECTION('ref_axis',(0.,0.,-1.));
#461=DIRECTION('center_axis',(0.,1.,0.));
#462=DIRECTION('ref_axis',(0.,0.,1.));
#463=DIRECTION('',(0.,-1.,0.));
#464=DIRECTION('center_axis',(0.,1.,0.));
#465=DIRECTION('ref_axis',(0.,0.,1.));
#466=DIRECTION('center_axis',(0.,-1.,0.));
#467=DIRECTION('ref_axis',(0.,0.,-1.));
#468=DIRECTION('center_axis',(0.,-1.,0.));
#469=DIRECTION('ref_axis',(0.,0.,-1.));
#470=DIRECTION('',(-1.,0.,0.));
#471=DIRECTION('center_axis',(0.,1.,0.));
#472=DIRECTION('ref_axis',(0.,0.,-1.));
#473=DIRECTION('',(0.,0.,1.));
#474=DIRECTION('center_axis',(0.,1.,0.));
#475=DIRECTION('ref_axis',(0.,0.,-1.));
#476=DIRECTION('',(1.,0.,0.));
#477=DIRECTION('center_axis',(0.,1.,0.));
#478=DIRECTION('ref_axis',(0.,0.,-1.));
#479=DIRECTION('',(0.,0.,-1.));
#480=DIRECTION('center_axis',(0.,1.,0.));
#481=DIRECTION('ref_axis',(0.,0.,-1.));
#482=DIRECTION('center_axis',(0.,-1.,0.));
#483=DIRECTION('ref_axis',(0.,0.,-1.));
#484=DIRECTION('',(0.,0.,1.));
#485=DIRECTION('center_axis',(0.,-1.,0.));
#486=DIRECTION('ref_axis',(0.,0.,-1.));
#487=DIRECTION('',(-1.,0.,0.));
#488=DIRECTION('center_axis',(0.,-1.,0.));
#489=DIRECTION('ref_axis',(0.,0.,-1.));
#490=DIRECTION('',(0.,0.,-1.));
#491=DIRECTION('center_axis',(0.,-1.,0.));
#492=DIRECTION('ref_axis',(0.,0.,-1.));
#493=DIRECTION('',(1.,0.,0.));
#494=DIRECTION('center_axis',(0.,-1.,0.));
#495=DIRECTION('ref_axis',(0.,0.,-1.));
#496=DIRECTION('center_axis',(1.,0.,0.));
#497=DIRECTION('ref_axis',(0.,0.,-1.));
#498=DIRECTION('',(0.,-1.,0.));
#499=DIRECTION('',(0.,1.,0.));
#500=DIRECTION('center_axis',(0.,0.,-1.));
#501=DIRECTION('ref_axis',(-1.,0.,0.));
#502=DIRECTION('',(0.,1.,0.));
#503=DIRECTION('',(0.,-1.,0.));
#504=DIRECTION('center_axis',(-1.,0.,0.));
#505=DIRECTION('ref_axis',(0.,0.,1.));
#506=DIRECTION('',(0.,1.,0.));
#507=DIRECTION('',(0.,-1.,0.));
#508=DIRECTION('center_axis',(0.,0.,1.));
#509=DIRECTION('ref_axis',(1.,0.,0.));
#510=DIRECTION('',(0.,1.,0.));
#511=DIRECTION('',(0.,-1.,0.));
#512=DIRECTION('center_axis',(0.,-1.,0.));
#513=DIRECTION('ref_axis',(0.,0.,-1.));
#514=DIRECTION('center_axis',(0.,-1.,0.));
#515=DIRECTION('ref_axis',(0.,0.,-1.));
#516=DIRECTION('center_axis',(0.,-1.,0.));
#517=DIRECTION('ref_axis',(0.,0.,-1.));
#518=DIRECTION('center_axis',(0.,-1.,0.));
#519=DIRECTION('ref_axis',(0.,0.,-1.));
#520=DIRECTION('center_axis',(0.,-1.,0.));
#521=DIRECTION('ref_axis',(0.,0.,-1.));
#522=DIRECTION('center_axis',(0.,-1.,0.));
#523=DIRECTION('ref_axis',(0.,0.,-1.));
#524=DIRECTION('center_axis',(0.,-1.,0.));
#525=DIRECTION('ref_axis',(0.,0.,-1.));
#526=CARTESIAN_POINT('',(0.,0.,0.));
#527=CARTESIAN_POINT('Origin',(0.,2.9,0.));
#528=CARTESIAN_POINT('',(-1.22464679914735E-15,0.,10.));
#529=CARTESIAN_POINT('Origin',(0.,0.,0.));
#530=CARTESIAN_POINT('',(-1.22464679914735E-15,2.9,10.));
#531=CARTESIAN_POINT('',(-1.22464679914735E-15,2.9,10.));
#532=CARTESIAN_POINT('Origin',(0.,2.9,0.));
#533=CARTESIAN_POINT('Origin',(0.,2.9,0.));
#534=CARTESIAN_POINT('',(-1.77573785876366E-15,2.9,14.5));
#535=CARTESIAN_POINT('Origin',(0.,2.9,0.));
#536=CARTESIAN_POINT('',(-1.77573785876366E-15,0.,14.5));
#537=CARTESIAN_POINT('',(-1.77573785876366E-15,2.9,14.5));
#538=CARTESIAN_POINT('Origin',(0.,0.,0.));
#539=CARTESIAN_POINT('Origin',(-22.5,12.,0.));
#540=CARTESIAN_POINT('',(-22.5,6.5,-6.75));
#541=CARTESIAN_POINT('Origin',(-22.5,6.5,0.));
#542=CARTESIAN_POINT('',(-22.5,12.,-6.75));
#543=CARTESIAN_POINT('',(-22.5,12.,-6.75));
#544=CARTESIAN_POINT('Origin',(-22.5,12.,0.));
#545=CARTESIAN_POINT('Origin',(-22.5,12.,0.));
#546=CARTESIAN_POINT('',(-22.5,0.,-4.5));
#547=CARTESIAN_POINT('Origin',(-22.5,0.,0.));
#548=CARTESIAN_POINT('',(-22.5,6.5,-4.5));
#549=CARTESIAN_POINT('',(-22.5,12.,-4.5));
#550=CARTESIAN_POINT('Origin',(-22.5,6.5,0.));
#551=CARTESIAN_POINT('Origin',(22.5,12.,0.));
#552=CARTESIAN_POINT('',(22.5,6.5,-6.75));
#553=CARTESIAN_POINT('Origin',(22.5,6.5,0.));
#554=CARTESIAN_POINT('',(22.5,12.,-6.75));
#555=CARTESIAN_POINT('',(22.5,12.,-6.75));
#556=CARTESIAN_POINT('Origin',(22.5,12.,0.));
#557=CARTESIAN_POINT('Origin',(22.5,12.,0.));
#558=CARTESIAN_POINT('',(22.5,0.,-4.5));
#559=CARTESIAN_POINT('Origin',(22.5,0.,0.));
#560=CARTESIAN_POINT('',(22.5,6.5,-4.5));
#561=CARTESIAN_POINT('',(22.5,12.,-4.5));
#562=CARTESIAN_POINT('Origin',(22.5,6.5,0.));
#563=CARTESIAN_POINT('Origin',(0.,12.,0.));
#564=CARTESIAN_POINT('',(-9.33793184349857E-16,12.,7.625));
#565=CARTESIAN_POINT('Origin',(0.,12.,0.));
#566=CARTESIAN_POINT('',(-9.33793184349857E-16,0.,7.625));
#567=CARTESIAN_POINT('',(-9.33793184349857E-16,12.,7.625));
#568=CARTESIAN_POINT('Origin',(0.,0.,0.));
#569=CARTESIAN_POINT('Origin',(-45.,0.,-22.5));
#570=CARTESIAN_POINT('Origin',(-45.,12.,-22.5));
#571=CARTESIAN_POINT('',(42.5,12.,-22.5));
#572=CARTESIAN_POINT('',(-42.5,12.,-22.5));
#573=CARTESIAN_POINT('',(-45.,12.,-22.5));
#574=CARTESIAN_POINT('',(-45.,12.,-20.));
#575=CARTESIAN_POINT('Origin',(-42.5,12.,-20.));
#576=CARTESIAN_POINT('',(-45.,12.,20.));
#577=CARTESIAN_POINT('',(-45.,12.,22.5));
#578=CARTESIAN_POINT('',(-42.5,12.,22.5));
#579=CARTESIAN_POINT('Origin',(-42.5,12.,20.));
#580=CARTESIAN_POINT('',(42.5,12.,22.5));
#581=CARTESIAN_POINT('',(-45.,12.,22.5));
#582=CARTESIAN_POINT('',(45.,12.,20.));
#583=CARTESIAN_POINT('Origin',(42.5,12.,20.));
#584=CARTESIAN_POINT('',(45.,12.,-20.));
#585=CARTESIAN_POINT('',(45.,12.,22.5));
#586=CARTESIAN_POINT('Origin',(42.5,12.,-20.));
#587=CARTESIAN_POINT('Origin',(-45.,0.,-22.5));
#588=CARTESIAN_POINT('',(-45.,0.,-20.));
#589=CARTESIAN_POINT('',(-45.,0.,20.));
#590=CARTESIAN_POINT('',(-45.,0.,22.5));
#591=CARTESIAN_POINT('',(-42.5,0.,-22.5));
#592=CARTESIAN_POINT('Origin',(-42.5,0.,-20.));
#593=CARTESIAN_POINT('',(42.5,0.,-22.5));
#594=CARTESIAN_POINT('',(-45.,0.,-22.5));
#595=CARTESIAN_POINT('',(45.,0.,-20.));
#596=CARTESIAN_POINT('Origin',(42.5,0.,-20.));
#597=CARTESIAN_POINT('',(45.,0.,20.));
#598=CARTESIAN_POINT('',(45.,0.,22.5));
#599=CARTESIAN_POINT('',(42.5,0.,22.5));
#600=CARTESIAN_POINT('Origin',(42.5,0.,20.));
#601=CARTESIAN_POINT('',(-42.5,0.,22.5));
#602=CARTESIAN_POINT('',(-45.,0.,22.5));
#603=CARTESIAN_POINT('Origin',(-42.5,0.,20.));
#604=CARTESIAN_POINT('Origin',(-45.,12.,22.5));
#605=CARTESIAN_POINT('',(-45.,12.,-20.));
#606=CARTESIAN_POINT('',(-45.,12.,20.));
#607=CARTESIAN_POINT('Origin',(-45.,12.,22.5));
#608=CARTESIAN_POINT('',(42.5,12.,22.5));
#609=CARTESIAN_POINT('',(-42.5,12.,22.5));
#610=CARTESIAN_POINT('Origin',(45.,12.,22.5));
#611=CARTESIAN_POINT('',(45.,12.,-20.));
#612=CARTESIAN_POINT('',(45.,12.,20.));
#613=CARTESIAN_POINT('Origin',(-45.,12.,-22.5));
#614=CARTESIAN_POINT('',(-42.5,12.,-22.5));
#615=CARTESIAN_POINT('',(42.5,12.,-22.5));
#616=CARTESIAN_POINT('Origin',(-42.5,12.,-20.));
#617=CARTESIAN_POINT('Origin',(42.5,12.,-20.));
#618=CARTESIAN_POINT('Origin',(42.5,12.,20.));
#619=CARTESIAN_POINT('Origin',(-42.5,12.,20.));
#620=CARTESIAN_POINT('Origin',(27.,6.5,0.));
#621=CARTESIAN_POINT('Origin',(-18.,6.5,0.));
#622=CARTESIAN_POINT('Origin',(0.,2.9,0.));
#623=UNCERTAINTY_MEASURE_WITH_UNIT(LENGTH_MEASURE(0.01),#627,
'DISTANCE_ACCURACY_VALUE',
'Maximum model space distance between geometric entities at asserted c
onnectivities');
#624=UNCERTAINTY_MEASURE_WITH_UNIT(LENGTH_MEASURE(0.01),#627,
'DISTANCE_ACCURACY_VALUE',
'Maximum model space distance between geometric entities at asserted c
onnectivities');
#625=(
GEOMETRIC_REPRESENTATION_CONTEXT(3)
GLOBAL_UNCERTAINTY_ASSIGNED_CONTEXT((#623))
GLOBAL_UNIT_ASSIGNED_CONTEXT((#627,#629,#630))
REPRESENTATION_CONTEXT('','3D')
);
#626=(
GEOMETRIC_REPRESENTATION_CONTEXT(3)
GLOBAL_UNCERTAINTY_ASSIGNED_CONTEXT((#624))
GLOBAL_UNIT_ASSIGNED_CONTEXT((#627,#629,#630))
REPRESENTATION_CONTEXT('','3D')
);
#627=(
LENGTH_UNIT()
NAMED_UNIT(*)
SI_UNIT(.MILLI.,.METRE.)
);
#628=(
LENGTH_UNIT()
NAMED_UNIT(*)
SI_UNIT(.CENTI.,.METRE.)
);
#629=(
NAMED_UNIT(*)
PLANE_ANGLE_UNIT()
SI_UNIT($,.RADIAN.)
);
#630=(
NAMED_UNIT(*)
SI_UNIT($,.STERADIAN.)
SOLID_ANGLE_UNIT()
);
#631=SHAPE_DEFINITION_REPRESENTATION(#632,#633);
#632=PRODUCT_DEFINITION_SHAPE('',$,#635);
#633=SHAPE_REPRESENTATION('',(#371),#625);
#634=PRODUCT_DEFINITION_CONTEXT('part definition',#639,'design');
#635=PRODUCT_DEFINITION('MPG45-90G38','MPG45-90G38',#636,#634);
#636=PRODUCT_DEFINITION_FORMATION('TUTTO',$,#641);
#637=PRODUCT_RELATED_PRODUCT_CATEGORY('MPG45-90G38','MPG45-90G38',(#641));
#638=APPLICATION_PROTOCOL_DEFINITION('international standard',
'automotive_design',2009,#639);
#639=APPLICATION_CONTEXT(
'Core Data for Automotive Mechanical Design Process');
#640=PRODUCT_CONTEXT('part definition',#639,'mechanical');
#641=PRODUCT('MPG45-90G38','MPG45-90G38','STEP AP203',(#640));
#642=PRESENTATION_STYLE_ASSIGNMENT((#643));
#643=SURFACE_STYLE_USAGE(.BOTH.,#646);
#644=SURFACE_STYLE_RENDERING_WITH_PROPERTIES($,#650,(#645));
#645=SURFACE_STYLE_TRANSPARENT(0.);
#646=SURFACE_SIDE_STYLE('',(#647,#644));
#647=SURFACE_STYLE_FILL_AREA(#648);
#648=FILL_AREA_STYLE('',(#649));
#649=FILL_AREA_STYLE_COLOUR('',#650);
#650=COLOUR_RGB('',0.749019607843137,0.749019607843137,0.749019607843137);
ENDSEC;
END-ISO-10303-21;
