ISO-10303-21;
HEADER;
/* Generated by software containing ST-Developer
 * from STEP Tools, Inc. (www.steptools.com) 
 */

FILE_DESCRIPTION(
/* description */ ('Piastra di giunzione a L'),
/* implementation_level */ '2;1');

FILE_NAME(
/* name */ 'C:\\omnitec\\Desktop\\Connessone PCB\\JPL30.stp',
/* time_stamp */ '2021-02-19T09:58:07+01:00',
/* author */ ('omnitec'),
/* organization */ (''),
/* preprocessor_version */ 'ST-DEVELOPER v18.1',
/* originating_system */ 'Autodesk Inventor 2021',
/* authorisation */ '');

FILE_SCHEMA (('AUTOMOTIVE_DESIGN { 1 0 10303 214 3 1 1 }'));
ENDSEC;

DATA;
#10=MECHANICAL_DESIGN_GEOMETRIC_PRESENTATION_REPRESENTATION('',(#13),#660);
#11=SHAPE_REPRESENTATION_RELATIONSHIP('SRR','None',#667,#12);
#12=ADVANCED_BREP_SHAPE_REPRESENTATION('',(#14),#659);
#13=STYLED_ITEM('',(#676),#14);
#14=MANIFOLD_SOLID_BREP('Solido1',#378);
#15=FACE_BOUND('',#58,.T.);
#16=FACE_BOUND('',#59,.T.);
#17=FACE_BOUND('',#60,.T.);
#18=FACE_BOUND('',#61,.T.);
#19=FACE_BOUND('',#62,.T.);
#20=FACE_BOUND('',#64,.T.);
#21=FACE_BOUND('',#65,.T.);
#22=FACE_BOUND('',#66,.T.);
#23=FACE_BOUND('',#67,.T.);
#24=FACE_BOUND('',#68,.T.);
#25=PLANE('',#413);
#26=PLANE('',#420);
#27=PLANE('',#428);
#28=PLANE('',#430);
#29=PLANE('',#432);
#30=PLANE('',#434);
#31=PLANE('',#436);
#32=PLANE('',#438);
#33=FACE_OUTER_BOUND('',#52,.T.);
#34=FACE_OUTER_BOUND('',#53,.T.);
#35=FACE_OUTER_BOUND('',#54,.T.);
#36=FACE_OUTER_BOUND('',#55,.T.);
#37=FACE_OUTER_BOUND('',#56,.T.);
#38=FACE_OUTER_BOUND('',#57,.T.);
#39=FACE_OUTER_BOUND('',#63,.T.);
#40=FACE_OUTER_BOUND('',#69,.T.);
#41=FACE_OUTER_BOUND('',#70,.T.);
#42=FACE_OUTER_BOUND('',#71,.T.);
#43=FACE_OUTER_BOUND('',#72,.T.);
#44=FACE_OUTER_BOUND('',#73,.T.);
#45=FACE_OUTER_BOUND('',#74,.T.);
#46=FACE_OUTER_BOUND('',#75,.T.);
#47=FACE_OUTER_BOUND('',#76,.T.);
#48=FACE_OUTER_BOUND('',#77,.T.);
#49=FACE_OUTER_BOUND('',#78,.T.);
#50=FACE_OUTER_BOUND('',#79,.T.);
#51=FACE_OUTER_BOUND('',#80,.T.);
#52=EDGE_LOOP('',(#246,#247,#248,#249));
#53=EDGE_LOOP('',(#250,#251,#252,#253));
#54=EDGE_LOOP('',(#254,#255,#256,#257));
#55=EDGE_LOOP('',(#258,#259,#260,#261));
#56=EDGE_LOOP('',(#262,#263,#264,#265));
#57=EDGE_LOOP('',(#266,#267,#268,#269,#270,#271,#272,#273,#274,#275,#276,
#277));
#58=EDGE_LOOP('',(#278));
#59=EDGE_LOOP('',(#279));
#60=EDGE_LOOP('',(#280));
#61=EDGE_LOOP('',(#281));
#62=EDGE_LOOP('',(#282));
#63=EDGE_LOOP('',(#283,#284,#285,#286,#287,#288,#289,#290,#291,#292,#293,
#294));
#64=EDGE_LOOP('',(#295));
#65=EDGE_LOOP('',(#296));
#66=EDGE_LOOP('',(#297));
#67=EDGE_LOOP('',(#298));
#68=EDGE_LOOP('',(#299));
#69=EDGE_LOOP('',(#300,#301,#302,#303));
#70=EDGE_LOOP('',(#304,#305,#306,#307));
#71=EDGE_LOOP('',(#308,#309,#310,#311));
#72=EDGE_LOOP('',(#312,#313,#314,#315));
#73=EDGE_LOOP('',(#316,#317,#318,#319));
#74=EDGE_LOOP('',(#320,#321,#322,#323));
#75=EDGE_LOOP('',(#324,#325,#326,#327));
#76=EDGE_LOOP('',(#328,#329,#330,#331));
#77=EDGE_LOOP('',(#332,#333,#334,#335));
#78=EDGE_LOOP('',(#336,#337,#338,#339));
#79=EDGE_LOOP('',(#340,#341,#342,#343));
#80=EDGE_LOOP('',(#344,#345,#346,#347));
#81=LINE('',#557,#110);
#82=LINE('',#563,#111);
#83=LINE('',#569,#112);
#84=LINE('',#575,#113);
#85=LINE('',#581,#114);
#86=LINE('',#588,#115);
#87=LINE('',#592,#116);
#88=LINE('',#596,#117);
#89=LINE('',#600,#118);
#90=LINE('',#604,#119);
#91=LINE('',#607,#120);
#92=LINE('',#613,#121);
#93=LINE('',#617,#122);
#94=LINE('',#621,#123);
#95=LINE('',#625,#124);
#96=LINE('',#629,#125);
#97=LINE('',#632,#126);
#98=LINE('',#634,#127);
#99=LINE('',#635,#128);
#100=LINE('',#637,#129);
#101=LINE('',#639,#130);
#102=LINE('',#641,#131);
#103=LINE('',#643,#132);
#104=LINE('',#645,#133);
#105=LINE('',#647,#134);
#106=LINE('',#649,#135);
#107=LINE('',#651,#136);
#108=LINE('',#653,#137);
#109=LINE('',#655,#138);
#110=VECTOR('',#445,3.24999999999998);
#111=VECTOR('',#452,3.24999999999998);
#112=VECTOR('',#459,3.24999999999998);
#113=VECTOR('',#466,3.24999999999998);
#114=VECTOR('',#473,3.24999999999998);
#115=VECTOR('',#480,1000.);
#116=VECTOR('',#483,1000.);
#117=VECTOR('',#486,1000.);
#118=VECTOR('',#489,1000.);
#119=VECTOR('',#492,1000.);
#120=VECTOR('',#495,1000.);
#121=VECTOR('',#500,1000.);
#122=VECTOR('',#503,1000.);
#123=VECTOR('',#506,1000.);
#124=VECTOR('',#509,1000.);
#125=VECTOR('',#512,1000.);
#126=VECTOR('',#515,1000.);
#127=VECTOR('',#518,1000.);
#128=VECTOR('',#519,1000.);
#129=VECTOR('',#522,1000.);
#130=VECTOR('',#525,1000.);
#131=VECTOR('',#528,1000.);
#132=VECTOR('',#531,1000.);
#133=VECTOR('',#534,1000.);
#134=VECTOR('',#537,1000.);
#135=VECTOR('',#540,1000.);
#136=VECTOR('',#543,1000.);
#137=VECTOR('',#546,1000.);
#138=VECTOR('',#549,1000.);
#139=CIRCLE('',#399,3.24999999999998);
#140=CIRCLE('',#400,3.24999999999998);
#141=CIRCLE('',#402,3.24999999999998);
#142=CIRCLE('',#403,3.24999999999998);
#143=CIRCLE('',#405,3.24999999999998);
#144=CIRCLE('',#406,3.24999999999998);
#145=CIRCLE('',#408,3.24999999999998);
#146=CIRCLE('',#409,3.24999999999998);
#147=CIRCLE('',#411,3.24999999999998);
#148=CIRCLE('',#412,3.24999999999998);
#149=CIRCLE('',#414,2.);
#150=CIRCLE('',#415,2.);
#151=CIRCLE('',#416,5.);
#152=CIRCLE('',#417,2.);
#153=CIRCLE('',#418,2.);
#154=CIRCLE('',#419,2.);
#155=CIRCLE('',#421,2.);
#156=CIRCLE('',#422,2.);
#157=CIRCLE('',#423,2.);
#158=CIRCLE('',#424,2.);
#159=CIRCLE('',#425,5.);
#160=CIRCLE('',#426,2.);
#161=VERTEX_POINT('',#554);
#162=VERTEX_POINT('',#556);
#163=VERTEX_POINT('',#560);
#164=VERTEX_POINT('',#562);
#165=VERTEX_POINT('',#566);
#166=VERTEX_POINT('',#568);
#167=VERTEX_POINT('',#572);
#168=VERTEX_POINT('',#574);
#169=VERTEX_POINT('',#578);
#170=VERTEX_POINT('',#580);
#171=VERTEX_POINT('',#584);
#172=VERTEX_POINT('',#585);
#173=VERTEX_POINT('',#587);
#174=VERTEX_POINT('',#589);
#175=VERTEX_POINT('',#591);
#176=VERTEX_POINT('',#593);
#177=VERTEX_POINT('',#595);
#178=VERTEX_POINT('',#597);
#179=VERTEX_POINT('',#599);
#180=VERTEX_POINT('',#601);
#181=VERTEX_POINT('',#603);
#182=VERTEX_POINT('',#605);
#183=VERTEX_POINT('',#609);
#184=VERTEX_POINT('',#610);
#185=VERTEX_POINT('',#612);
#186=VERTEX_POINT('',#614);
#187=VERTEX_POINT('',#616);
#188=VERTEX_POINT('',#618);
#189=VERTEX_POINT('',#620);
#190=VERTEX_POINT('',#622);
#191=VERTEX_POINT('',#624);
#192=VERTEX_POINT('',#626);
#193=VERTEX_POINT('',#628);
#194=VERTEX_POINT('',#630);
#195=EDGE_CURVE('',#161,#161,#139,.T.);
#196=EDGE_CURVE('',#161,#162,#81,.T.);
#197=EDGE_CURVE('',#162,#162,#140,.T.);
#198=EDGE_CURVE('',#163,#163,#141,.T.);
#199=EDGE_CURVE('',#163,#164,#82,.T.);
#200=EDGE_CURVE('',#164,#164,#142,.T.);
#201=EDGE_CURVE('',#165,#165,#143,.T.);
#202=EDGE_CURVE('',#165,#166,#83,.T.);
#203=EDGE_CURVE('',#166,#166,#144,.T.);
#204=EDGE_CURVE('',#167,#167,#145,.T.);
#205=EDGE_CURVE('',#167,#168,#84,.T.);
#206=EDGE_CURVE('',#168,#168,#146,.T.);
#207=EDGE_CURVE('',#169,#169,#147,.T.);
#208=EDGE_CURVE('',#169,#170,#85,.T.);
#209=EDGE_CURVE('',#170,#170,#148,.T.);
#210=EDGE_CURVE('',#171,#172,#149,.T.);
#211=EDGE_CURVE('',#172,#173,#86,.T.);
#212=EDGE_CURVE('',#173,#174,#150,.T.);
#213=EDGE_CURVE('',#174,#175,#87,.T.);
#214=EDGE_CURVE('',#175,#176,#151,.T.);
#215=EDGE_CURVE('',#176,#177,#88,.T.);
#216=EDGE_CURVE('',#177,#178,#152,.T.);
#217=EDGE_CURVE('',#178,#179,#89,.T.);
#218=EDGE_CURVE('',#179,#180,#153,.T.);
#219=EDGE_CURVE('',#180,#181,#90,.T.);
#220=EDGE_CURVE('',#181,#182,#154,.T.);
#221=EDGE_CURVE('',#182,#171,#91,.T.);
#222=EDGE_CURVE('',#183,#184,#155,.T.);
#223=EDGE_CURVE('',#185,#183,#92,.T.);
#224=EDGE_CURVE('',#186,#185,#156,.T.);
#225=EDGE_CURVE('',#187,#186,#93,.T.);
#226=EDGE_CURVE('',#188,#187,#157,.T.);
#227=EDGE_CURVE('',#189,#188,#94,.T.);
#228=EDGE_CURVE('',#190,#189,#158,.T.);
#229=EDGE_CURVE('',#191,#190,#95,.T.);
#230=EDGE_CURVE('',#192,#191,#159,.T.);
#231=EDGE_CURVE('',#193,#192,#96,.T.);
#232=EDGE_CURVE('',#194,#193,#160,.T.);
#233=EDGE_CURVE('',#184,#194,#97,.T.);
#234=EDGE_CURVE('',#172,#184,#98,.T.);
#235=EDGE_CURVE('',#171,#183,#99,.T.);
#236=EDGE_CURVE('',#173,#194,#100,.T.);
#237=EDGE_CURVE('',#174,#193,#101,.T.);
#238=EDGE_CURVE('',#175,#192,#102,.T.);
#239=EDGE_CURVE('',#176,#191,#103,.T.);
#240=EDGE_CURVE('',#177,#190,#104,.T.);
#241=EDGE_CURVE('',#178,#189,#105,.T.);
#242=EDGE_CURVE('',#179,#188,#106,.T.);
#243=EDGE_CURVE('',#180,#187,#107,.T.);
#244=EDGE_CURVE('',#181,#186,#108,.T.);
#245=EDGE_CURVE('',#182,#185,#109,.T.);
#246=ORIENTED_EDGE('',*,*,#195,.T.);
#247=ORIENTED_EDGE('',*,*,#196,.T.);
#248=ORIENTED_EDGE('',*,*,#197,.F.);
#249=ORIENTED_EDGE('',*,*,#196,.F.);
#250=ORIENTED_EDGE('',*,*,#198,.T.);
#251=ORIENTED_EDGE('',*,*,#199,.T.);
#252=ORIENTED_EDGE('',*,*,#200,.F.);
#253=ORIENTED_EDGE('',*,*,#199,.F.);
#254=ORIENTED_EDGE('',*,*,#201,.T.);
#255=ORIENTED_EDGE('',*,*,#202,.T.);
#256=ORIENTED_EDGE('',*,*,#203,.F.);
#257=ORIENTED_EDGE('',*,*,#202,.F.);
#258=ORIENTED_EDGE('',*,*,#204,.T.);
#259=ORIENTED_EDGE('',*,*,#205,.T.);
#260=ORIENTED_EDGE('',*,*,#206,.F.);
#261=ORIENTED_EDGE('',*,*,#205,.F.);
#262=ORIENTED_EDGE('',*,*,#207,.T.);
#263=ORIENTED_EDGE('',*,*,#208,.T.);
#264=ORIENTED_EDGE('',*,*,#209,.F.);
#265=ORIENTED_EDGE('',*,*,#208,.F.);
#266=ORIENTED_EDGE('',*,*,#210,.T.);
#267=ORIENTED_EDGE('',*,*,#211,.T.);
#268=ORIENTED_EDGE('',*,*,#212,.T.);
#269=ORIENTED_EDGE('',*,*,#213,.T.);
#270=ORIENTED_EDGE('',*,*,#214,.T.);
#271=ORIENTED_EDGE('',*,*,#215,.T.);
#272=ORIENTED_EDGE('',*,*,#216,.T.);
#273=ORIENTED_EDGE('',*,*,#217,.T.);
#274=ORIENTED_EDGE('',*,*,#218,.T.);
#275=ORIENTED_EDGE('',*,*,#219,.T.);
#276=ORIENTED_EDGE('',*,*,#220,.T.);
#277=ORIENTED_EDGE('',*,*,#221,.T.);
#278=ORIENTED_EDGE('',*,*,#207,.F.);
#279=ORIENTED_EDGE('',*,*,#201,.F.);
#280=ORIENTED_EDGE('',*,*,#195,.F.);
#281=ORIENTED_EDGE('',*,*,#198,.F.);
#282=ORIENTED_EDGE('',*,*,#204,.F.);
#283=ORIENTED_EDGE('',*,*,#222,.F.);
#284=ORIENTED_EDGE('',*,*,#223,.F.);
#285=ORIENTED_EDGE('',*,*,#224,.F.);
#286=ORIENTED_EDGE('',*,*,#225,.F.);
#287=ORIENTED_EDGE('',*,*,#226,.F.);
#288=ORIENTED_EDGE('',*,*,#227,.F.);
#289=ORIENTED_EDGE('',*,*,#228,.F.);
#290=ORIENTED_EDGE('',*,*,#229,.F.);
#291=ORIENTED_EDGE('',*,*,#230,.F.);
#292=ORIENTED_EDGE('',*,*,#231,.F.);
#293=ORIENTED_EDGE('',*,*,#232,.F.);
#294=ORIENTED_EDGE('',*,*,#233,.F.);
#295=ORIENTED_EDGE('',*,*,#209,.T.);
#296=ORIENTED_EDGE('',*,*,#203,.T.);
#297=ORIENTED_EDGE('',*,*,#197,.T.);
#298=ORIENTED_EDGE('',*,*,#200,.T.);
#299=ORIENTED_EDGE('',*,*,#206,.T.);
#300=ORIENTED_EDGE('',*,*,#222,.T.);
#301=ORIENTED_EDGE('',*,*,#234,.F.);
#302=ORIENTED_EDGE('',*,*,#210,.F.);
#303=ORIENTED_EDGE('',*,*,#235,.T.);
#304=ORIENTED_EDGE('',*,*,#233,.T.);
#305=ORIENTED_EDGE('',*,*,#236,.F.);
#306=ORIENTED_EDGE('',*,*,#211,.F.);
#307=ORIENTED_EDGE('',*,*,#234,.T.);
#308=ORIENTED_EDGE('',*,*,#232,.T.);
#309=ORIENTED_EDGE('',*,*,#237,.F.);
#310=ORIENTED_EDGE('',*,*,#212,.F.);
#311=ORIENTED_EDGE('',*,*,#236,.T.);
#312=ORIENTED_EDGE('',*,*,#231,.T.);
#313=ORIENTED_EDGE('',*,*,#238,.F.);
#314=ORIENTED_EDGE('',*,*,#213,.F.);
#315=ORIENTED_EDGE('',*,*,#237,.T.);
#316=ORIENTED_EDGE('',*,*,#230,.T.);
#317=ORIENTED_EDGE('',*,*,#239,.F.);
#318=ORIENTED_EDGE('',*,*,#214,.F.);
#319=ORIENTED_EDGE('',*,*,#238,.T.);
#320=ORIENTED_EDGE('',*,*,#229,.T.);
#321=ORIENTED_EDGE('',*,*,#240,.F.);
#322=ORIENTED_EDGE('',*,*,#215,.F.);
#323=ORIENTED_EDGE('',*,*,#239,.T.);
#324=ORIENTED_EDGE('',*,*,#228,.T.);
#325=ORIENTED_EDGE('',*,*,#241,.F.);
#326=ORIENTED_EDGE('',*,*,#216,.F.);
#327=ORIENTED_EDGE('',*,*,#240,.T.);
#328=ORIENTED_EDGE('',*,*,#227,.T.);
#329=ORIENTED_EDGE('',*,*,#242,.F.);
#330=ORIENTED_EDGE('',*,*,#217,.F.);
#331=ORIENTED_EDGE('',*,*,#241,.T.);
#332=ORIENTED_EDGE('',*,*,#226,.T.);
#333=ORIENTED_EDGE('',*,*,#243,.F.);
#334=ORIENTED_EDGE('',*,*,#218,.F.);
#335=ORIENTED_EDGE('',*,*,#242,.T.);
#336=ORIENTED_EDGE('',*,*,#225,.T.);
#337=ORIENTED_EDGE('',*,*,#244,.F.);
#338=ORIENTED_EDGE('',*,*,#219,.F.);
#339=ORIENTED_EDGE('',*,*,#243,.T.);
#340=ORIENTED_EDGE('',*,*,#224,.T.);
#341=ORIENTED_EDGE('',*,*,#245,.F.);
#342=ORIENTED_EDGE('',*,*,#220,.F.);
#343=ORIENTED_EDGE('',*,*,#244,.T.);
#344=ORIENTED_EDGE('',*,*,#223,.T.);
#345=ORIENTED_EDGE('',*,*,#235,.F.);
#346=ORIENTED_EDGE('',*,*,#221,.F.);
#347=ORIENTED_EDGE('',*,*,#245,.T.);
#348=CYLINDRICAL_SURFACE('',#398,3.24999999999998);
#349=CYLINDRICAL_SURFACE('',#401,3.24999999999998);
#350=CYLINDRICAL_SURFACE('',#404,3.24999999999998);
#351=CYLINDRICAL_SURFACE('',#407,3.24999999999998);
#352=CYLINDRICAL_SURFACE('',#410,3.24999999999998);
#353=CYLINDRICAL_SURFACE('',#427,2.);
#354=CYLINDRICAL_SURFACE('',#429,2.);
#355=CYLINDRICAL_SURFACE('',#431,5.);
#356=CYLINDRICAL_SURFACE('',#433,2.);
#357=CYLINDRICAL_SURFACE('',#435,2.);
#358=CYLINDRICAL_SURFACE('',#437,2.);
#359=ADVANCED_FACE('',(#33),#348,.F.);
#360=ADVANCED_FACE('',(#34),#349,.F.);
#361=ADVANCED_FACE('',(#35),#350,.F.);
#362=ADVANCED_FACE('',(#36),#351,.F.);
#363=ADVANCED_FACE('',(#37),#352,.F.);
#364=ADVANCED_FACE('',(#38,#15,#16,#17,#18,#19),#25,.T.);
#365=ADVANCED_FACE('',(#39,#20,#21,#22,#23,#24),#26,.F.);
#366=ADVANCED_FACE('',(#40),#353,.T.);
#367=ADVANCED_FACE('',(#41),#27,.F.);
#368=ADVANCED_FACE('',(#42),#354,.T.);
#369=ADVANCED_FACE('',(#43),#28,.F.);
#370=ADVANCED_FACE('',(#44),#355,.F.);
#371=ADVANCED_FACE('',(#45),#29,.F.);
#372=ADVANCED_FACE('',(#46),#356,.T.);
#373=ADVANCED_FACE('',(#47),#30,.F.);
#374=ADVANCED_FACE('',(#48),#357,.T.);
#375=ADVANCED_FACE('',(#49),#31,.F.);
#376=ADVANCED_FACE('',(#50),#358,.T.);
#377=ADVANCED_FACE('',(#51),#32,.F.);
#378=CLOSED_SHELL('',(#359,#360,#361,#362,#363,#364,#365,#366,#367,#368,
#369,#370,#371,#372,#373,#374,#375,#376,#377));
#379=DERIVED_UNIT_ELEMENT(#381,1.);
#380=DERIVED_UNIT_ELEMENT(#662,-3.);
#381=(
MASS_UNIT()
NAMED_UNIT(*)
SI_UNIT($,.GRAM.)
);
#382=DERIVED_UNIT((#379,#380));
#383=MEASURE_REPRESENTATION_ITEM('density measure',
POSITIVE_RATIO_MEASURE(7.85),#382);
#384=PROPERTY_DEFINITION_REPRESENTATION(#389,#386);
#385=PROPERTY_DEFINITION_REPRESENTATION(#390,#387);
#386=REPRESENTATION('material name',(#388),#659);
#387=REPRESENTATION('density',(#383),#659);
#388=DESCRIPTIVE_REPRESENTATION_ITEM('Acciaio','Acciaio');
#389=PROPERTY_DEFINITION('material property','material name',#669);
#390=PROPERTY_DEFINITION('material property','density of part',#669);
#391=DATE_TIME_ROLE('creation_date');
#392=APPLIED_DATE_AND_TIME_ASSIGNMENT(#393,#391,(#669));
#393=DATE_AND_TIME(#394,#395);
#394=CALENDAR_DATE(2016,28,12);
#395=LOCAL_TIME(0,0,0.,#396);
#396=COORDINATED_UNIVERSAL_TIME_OFFSET(0,0,.BEHIND.);
#397=AXIS2_PLACEMENT_3D('placement',#552,#439,#440);
#398=AXIS2_PLACEMENT_3D('',#553,#441,#442);
#399=AXIS2_PLACEMENT_3D('',#555,#443,#444);
#400=AXIS2_PLACEMENT_3D('',#558,#446,#447);
#401=AXIS2_PLACEMENT_3D('',#559,#448,#449);
#402=AXIS2_PLACEMENT_3D('',#561,#450,#451);
#403=AXIS2_PLACEMENT_3D('',#564,#453,#454);
#404=AXIS2_PLACEMENT_3D('',#565,#455,#456);
#405=AXIS2_PLACEMENT_3D('',#567,#457,#458);
#406=AXIS2_PLACEMENT_3D('',#570,#460,#461);
#407=AXIS2_PLACEMENT_3D('',#571,#462,#463);
#408=AXIS2_PLACEMENT_3D('',#573,#464,#465);
#409=AXIS2_PLACEMENT_3D('',#576,#467,#468);
#410=AXIS2_PLACEMENT_3D('',#577,#469,#470);
#411=AXIS2_PLACEMENT_3D('',#579,#471,#472);
#412=AXIS2_PLACEMENT_3D('',#582,#474,#475);
#413=AXIS2_PLACEMENT_3D('',#583,#476,#477);
#414=AXIS2_PLACEMENT_3D('',#586,#478,#479);
#415=AXIS2_PLACEMENT_3D('',#590,#481,#482);
#416=AXIS2_PLACEMENT_3D('',#594,#484,#485);
#417=AXIS2_PLACEMENT_3D('',#598,#487,#488);
#418=AXIS2_PLACEMENT_3D('',#602,#490,#491);
#419=AXIS2_PLACEMENT_3D('',#606,#493,#494);
#420=AXIS2_PLACEMENT_3D('',#608,#496,#497);
#421=AXIS2_PLACEMENT_3D('',#611,#498,#499);
#422=AXIS2_PLACEMENT_3D('',#615,#501,#502);
#423=AXIS2_PLACEMENT_3D('',#619,#504,#505);
#424=AXIS2_PLACEMENT_3D('',#623,#507,#508);
#425=AXIS2_PLACEMENT_3D('',#627,#510,#511);
#426=AXIS2_PLACEMENT_3D('',#631,#513,#514);
#427=AXIS2_PLACEMENT_3D('',#633,#516,#517);
#428=AXIS2_PLACEMENT_3D('',#636,#520,#521);
#429=AXIS2_PLACEMENT_3D('',#638,#523,#524);
#430=AXIS2_PLACEMENT_3D('',#640,#526,#527);
#431=AXIS2_PLACEMENT_3D('',#642,#529,#530);
#432=AXIS2_PLACEMENT_3D('',#644,#532,#533);
#433=AXIS2_PLACEMENT_3D('',#646,#535,#536);
#434=AXIS2_PLACEMENT_3D('',#648,#538,#539);
#435=AXIS2_PLACEMENT_3D('',#650,#541,#542);
#436=AXIS2_PLACEMENT_3D('',#652,#544,#545);
#437=AXIS2_PLACEMENT_3D('',#654,#547,#548);
#438=AXIS2_PLACEMENT_3D('',#656,#550,#551);
#439=DIRECTION('axis',(0.,0.,1.));
#440=DIRECTION('refdir',(1.,0.,0.));
#441=DIRECTION('center_axis',(0.,0.,-1.));
#442=DIRECTION('ref_axis',(-1.,0.,0.));
#443=DIRECTION('center_axis',(0.,0.,1.));
#444=DIRECTION('ref_axis',(1.,0.,0.));
#445=DIRECTION('',(0.,0.,-1.));
#446=DIRECTION('center_axis',(0.,0.,1.));
#447=DIRECTION('ref_axis',(1.,0.,0.));
#448=DIRECTION('center_axis',(0.,0.,-1.));
#449=DIRECTION('ref_axis',(-1.,0.,0.));
#450=DIRECTION('center_axis',(0.,0.,1.));
#451=DIRECTION('ref_axis',(1.,0.,0.));
#452=DIRECTION('',(0.,0.,-1.));
#453=DIRECTION('center_axis',(0.,0.,1.));
#454=DIRECTION('ref_axis',(1.,0.,0.));
#455=DIRECTION('center_axis',(0.,0.,-1.));
#456=DIRECTION('ref_axis',(-1.,0.,0.));
#457=DIRECTION('center_axis',(0.,0.,1.));
#458=DIRECTION('ref_axis',(1.,0.,0.));
#459=DIRECTION('',(0.,0.,-1.));
#460=DIRECTION('center_axis',(0.,0.,1.));
#461=DIRECTION('ref_axis',(1.,0.,0.));
#462=DIRECTION('center_axis',(0.,0.,-1.));
#463=DIRECTION('ref_axis',(-1.,0.,0.));
#464=DIRECTION('center_axis',(0.,0.,1.));
#465=DIRECTION('ref_axis',(1.,0.,0.));
#466=DIRECTION('',(0.,0.,-1.));
#467=DIRECTION('center_axis',(0.,0.,1.));
#468=DIRECTION('ref_axis',(1.,0.,0.));
#469=DIRECTION('center_axis',(0.,0.,-1.));
#470=DIRECTION('ref_axis',(-1.,0.,0.));
#471=DIRECTION('center_axis',(0.,0.,1.));
#472=DIRECTION('ref_axis',(1.,0.,0.));
#473=DIRECTION('',(0.,0.,-1.));
#474=DIRECTION('center_axis',(0.,0.,1.));
#475=DIRECTION('ref_axis',(1.,0.,0.));
#476=DIRECTION('center_axis',(0.,0.,1.));
#477=DIRECTION('ref_axis',(1.,0.,0.));
#478=DIRECTION('center_axis',(0.,0.,1.));
#479=DIRECTION('ref_axis',(1.,0.,0.));
#480=DIRECTION('',(-1.,0.,0.));
#481=DIRECTION('center_axis',(0.,0.,1.));
#482=DIRECTION('ref_axis',(1.,0.,0.));
#483=DIRECTION('',(0.,-1.,0.));
#484=DIRECTION('center_axis',(0.,0.,-1.));
#485=DIRECTION('ref_axis',(1.,0.,0.));
#486=DIRECTION('',(-1.,0.,0.));
#487=DIRECTION('center_axis',(0.,0.,1.));
#488=DIRECTION('ref_axis',(1.,0.,0.));
#489=DIRECTION('',(-2.01858731750028E-14,-1.,0.));
#490=DIRECTION('center_axis',(0.,0.,1.));
#491=DIRECTION('ref_axis',(1.,0.,0.));
#492=DIRECTION('',(1.,0.,0.));
#493=DIRECTION('center_axis',(0.,0.,1.));
#494=DIRECTION('ref_axis',(1.,0.,0.));
#495=DIRECTION('',(0.,1.,0.));
#496=DIRECTION('center_axis',(0.,0.,1.));
#497=DIRECTION('ref_axis',(1.,0.,0.));
#498=DIRECTION('center_axis',(0.,0.,1.));
#499=DIRECTION('ref_axis',(1.,0.,0.));
#500=DIRECTION('',(0.,1.,0.));
#501=DIRECTION('center_axis',(0.,0.,1.));
#502=DIRECTION('ref_axis',(1.,0.,0.));
#503=DIRECTION('',(1.,0.,0.));
#504=DIRECTION('center_axis',(0.,0.,1.));
#505=DIRECTION('ref_axis',(1.,0.,0.));
#506=DIRECTION('',(-2.01858731750028E-14,-1.,0.));
#507=DIRECTION('center_axis',(0.,0.,1.));
#508=DIRECTION('ref_axis',(1.,0.,0.));
#509=DIRECTION('',(-1.,0.,0.));
#510=DIRECTION('center_axis',(0.,0.,-1.));
#511=DIRECTION('ref_axis',(1.,0.,0.));
#512=DIRECTION('',(0.,-1.,0.));
#513=DIRECTION('center_axis',(0.,0.,1.));
#514=DIRECTION('ref_axis',(1.,0.,0.));
#515=DIRECTION('',(-1.,0.,0.));
#516=DIRECTION('center_axis',(0.,0.,-1.));
#517=DIRECTION('ref_axis',(-1.,0.,0.));
#518=DIRECTION('',(0.,0.,-1.));
#519=DIRECTION('',(0.,0.,-1.));
#520=DIRECTION('center_axis',(0.,-1.,0.));
#521=DIRECTION('ref_axis',(0.,0.,-1.));
#522=DIRECTION('',(0.,0.,-1.));
#523=DIRECTION('center_axis',(0.,0.,-1.));
#524=DIRECTION('ref_axis',(-1.,0.,0.));
#525=DIRECTION('',(0.,0.,-1.));
#526=DIRECTION('center_axis',(1.,0.,0.));
#527=DIRECTION('ref_axis',(0.,0.,-1.));
#528=DIRECTION('',(0.,0.,-1.));
#529=DIRECTION('center_axis',(0.,0.,-1.));
#530=DIRECTION('ref_axis',(-1.,0.,0.));
#531=DIRECTION('',(0.,0.,-1.));
#532=DIRECTION('center_axis',(0.,-1.,0.));
#533=DIRECTION('ref_axis',(0.,0.,-1.));
#534=DIRECTION('',(0.,0.,-1.));
#535=DIRECTION('center_axis',(0.,0.,-1.));
#536=DIRECTION('ref_axis',(-1.,0.,0.));
#537=DIRECTION('',(0.,0.,-1.));
#538=DIRECTION('center_axis',(1.,-2.01858731750028E-14,0.));
#539=DIRECTION('ref_axis',(2.01858731750028E-14,1.,0.));
#540=DIRECTION('',(0.,0.,-1.));
#541=DIRECTION('center_axis',(0.,0.,-1.));
#542=DIRECTION('ref_axis',(-1.,0.,0.));
#543=DIRECTION('',(0.,0.,-1.));
#544=DIRECTION('center_axis',(0.,1.,0.));
#545=DIRECTION('ref_axis',(0.,0.,1.));
#546=DIRECTION('',(0.,0.,-1.));
#547=DIRECTION('center_axis',(0.,0.,-1.));
#548=DIRECTION('ref_axis',(-1.,0.,0.));
#549=DIRECTION('',(0.,0.,-1.));
#550=DIRECTION('center_axis',(-1.,0.,0.));
#551=DIRECTION('ref_axis',(0.,0.,1.));
#552=CARTESIAN_POINT('',(0.,0.,0.));
#553=CARTESIAN_POINT('Origin',(0.,60.0000000000001,2.));
#554=CARTESIAN_POINT('',(3.24999999999998,60.0000000000001,2.));
#555=CARTESIAN_POINT('Origin',(0.,60.0000000000001,2.));
#556=CARTESIAN_POINT('',(3.24999999999998,60.0000000000001,2.77555756156289E-16));
#557=CARTESIAN_POINT('',(3.24999999999998,60.0000000000001,2.));
#558=CARTESIAN_POINT('Origin',(0.,60.0000000000001,0.));
#559=CARTESIAN_POINT('Origin',(0.,30.,2.));
#560=CARTESIAN_POINT('',(3.24999999999998,30.,2.));
#561=CARTESIAN_POINT('Origin',(0.,30.,2.));
#562=CARTESIAN_POINT('',(3.24999999999998,30.,2.77555756156289E-16));
#563=CARTESIAN_POINT('',(3.24999999999998,30.,2.));
#564=CARTESIAN_POINT('Origin',(0.,30.,0.));
#565=CARTESIAN_POINT('Origin',(-60.0000000000001,0.,2.));
#566=CARTESIAN_POINT('',(-56.7500000000001,-3.98010209722887E-16,2.));
#567=CARTESIAN_POINT('Origin',(-60.0000000000001,0.,2.));
#568=CARTESIAN_POINT('',(-56.7500000000001,-3.98010209722887E-16,2.77555756156289E-16));
#569=CARTESIAN_POINT('',(-56.7500000000001,-3.98010209722887E-16,2.));
#570=CARTESIAN_POINT('Origin',(-60.0000000000001,0.,0.));
#571=CARTESIAN_POINT('Origin',(-30.,0.,2.));
#572=CARTESIAN_POINT('',(-26.7500000000001,-3.98010209722887E-16,2.));
#573=CARTESIAN_POINT('Origin',(-30.,0.,2.));
#574=CARTESIAN_POINT('',(-26.7500000000001,-3.98010209722887E-16,2.77555756156289E-16));
#575=CARTESIAN_POINT('',(-26.7500000000001,-3.98010209722887E-16,2.));
#576=CARTESIAN_POINT('Origin',(-30.,0.,0.));
#577=CARTESIAN_POINT('Origin',(0.,0.,2.));
#578=CARTESIAN_POINT('',(3.24999999999998,-3.98010209722887E-16,2.));
#579=CARTESIAN_POINT('Origin',(0.,0.,2.));
#580=CARTESIAN_POINT('',(3.24999999999998,-3.98010209722887E-16,2.77555756156289E-16));
#581=CARTESIAN_POINT('',(3.24999999999998,-3.98010209722887E-16,2.));
#582=CARTESIAN_POINT('Origin',(0.,0.,0.));
#583=CARTESIAN_POINT('Origin',(10.9999999999999,73.,2.));
#584=CARTESIAN_POINT('',(12.9999999999999,73.,2.));
#585=CARTESIAN_POINT('',(10.9999999999999,75.,2.));
#586=CARTESIAN_POINT('Origin',(10.9999999999999,73.,2.));
#587=CARTESIAN_POINT('',(-11.0000000000001,75.,2.));
#588=CARTESIAN_POINT('',(10.9999999999999,75.,2.));
#589=CARTESIAN_POINT('',(-13.0000000000001,73.,2.));
#590=CARTESIAN_POINT('Origin',(-11.0000000000001,73.,2.));
#591=CARTESIAN_POINT('',(-13.0000000000001,18.,2.));
#592=CARTESIAN_POINT('',(-13.0000000000001,73.,2.));
#593=CARTESIAN_POINT('',(-18.,13.,2.));
#594=CARTESIAN_POINT('Origin',(-18.,18.,2.));
#595=CARTESIAN_POINT('',(-72.9999999999995,12.9999999999999,2.));
#596=CARTESIAN_POINT('',(-18.,12.9999999999999,2.));
#597=CARTESIAN_POINT('',(-74.9999999999995,10.9999999999999,2.));
#598=CARTESIAN_POINT('Origin',(-72.9999999999995,10.9999999999999,2.));
#599=CARTESIAN_POINT('',(-75.,-11.0000000000001,2.));
#600=CARTESIAN_POINT('',(-74.9999999999995,10.9999999999999,2.));
#601=CARTESIAN_POINT('',(-73.,-13.0000000000001,2.));
#602=CARTESIAN_POINT('Origin',(-73.,-11.0000000000001,2.));
#603=CARTESIAN_POINT('',(10.9999999999999,-13.0000000000001,2.));
#604=CARTESIAN_POINT('',(10.9999999999999,-13.0000000000001,2.));
#605=CARTESIAN_POINT('',(12.9999999999999,-11.0000000000001,2.));
#606=CARTESIAN_POINT('Origin',(10.9999999999999,-11.0000000000001,2.));
#607=CARTESIAN_POINT('',(12.9999999999999,73.,2.));
#608=CARTESIAN_POINT('Origin',(10.9999999999999,73.,0.));
#609=CARTESIAN_POINT('',(12.9999999999999,73.,0.));
#610=CARTESIAN_POINT('',(10.9999999999999,75.,0.));
#611=CARTESIAN_POINT('Origin',(10.9999999999999,73.,0.));
#612=CARTESIAN_POINT('',(12.9999999999999,-11.0000000000001,0.));
#613=CARTESIAN_POINT('',(12.9999999999999,73.,0.));
#614=CARTESIAN_POINT('',(10.9999999999999,-13.0000000000001,0.));
#615=CARTESIAN_POINT('Origin',(10.9999999999999,-11.0000000000001,0.));
#616=CARTESIAN_POINT('',(-73.,-13.0000000000001,0.));
#617=CARTESIAN_POINT('',(10.9999999999999,-13.0000000000001,0.));
#618=CARTESIAN_POINT('',(-75.,-11.0000000000001,0.));
#619=CARTESIAN_POINT('Origin',(-73.,-11.0000000000001,0.));
#620=CARTESIAN_POINT('',(-74.9999999999995,10.9999999999999,0.));
#621=CARTESIAN_POINT('',(-74.9999999999995,10.9999999999999,0.));
#622=CARTESIAN_POINT('',(-72.9999999999995,12.9999999999999,0.));
#623=CARTESIAN_POINT('Origin',(-72.9999999999995,10.9999999999999,0.));
#624=CARTESIAN_POINT('',(-18.,13.,0.));
#625=CARTESIAN_POINT('',(-18.,12.9999999999999,0.));
#626=CARTESIAN_POINT('',(-13.0000000000001,18.,0.));
#627=CARTESIAN_POINT('Origin',(-18.,18.,0.));
#628=CARTESIAN_POINT('',(-13.0000000000001,73.,0.));
#629=CARTESIAN_POINT('',(-13.0000000000001,73.,0.));
#630=CARTESIAN_POINT('',(-11.0000000000001,75.,0.));
#631=CARTESIAN_POINT('Origin',(-11.0000000000001,73.,0.));
#632=CARTESIAN_POINT('',(10.9999999999999,75.,0.));
#633=CARTESIAN_POINT('Origin',(10.9999999999999,73.,2.));
#634=CARTESIAN_POINT('',(10.9999999999999,75.,2.));
#635=CARTESIAN_POINT('',(12.9999999999999,73.,2.));
#636=CARTESIAN_POINT('Origin',(10.9999999999999,75.,2.));
#637=CARTESIAN_POINT('',(-11.0000000000001,75.,2.));
#638=CARTESIAN_POINT('Origin',(-11.0000000000001,73.,2.));
#639=CARTESIAN_POINT('',(-13.0000000000001,73.,2.));
#640=CARTESIAN_POINT('Origin',(-13.0000000000001,73.,2.));
#641=CARTESIAN_POINT('',(-13.0000000000001,18.,2.));
#642=CARTESIAN_POINT('Origin',(-18.,18.,2.));
#643=CARTESIAN_POINT('',(-18.,13.,2.));
#644=CARTESIAN_POINT('Origin',(-18.,12.9999999999999,2.));
#645=CARTESIAN_POINT('',(-72.9999999999995,12.9999999999999,2.));
#646=CARTESIAN_POINT('Origin',(-72.9999999999995,10.9999999999999,2.));
#647=CARTESIAN_POINT('',(-74.9999999999995,10.9999999999999,2.));
#648=CARTESIAN_POINT('Origin',(-74.9999999999995,10.9999999999999,2.));
#649=CARTESIAN_POINT('',(-75.,-11.0000000000001,2.));
#650=CARTESIAN_POINT('Origin',(-73.,-11.0000000000001,2.));
#651=CARTESIAN_POINT('',(-73.,-13.0000000000001,2.));
#652=CARTESIAN_POINT('Origin',(10.9999999999999,-13.0000000000001,2.));
#653=CARTESIAN_POINT('',(10.9999999999999,-13.0000000000001,2.));
#654=CARTESIAN_POINT('Origin',(10.9999999999999,-11.0000000000001,2.));
#655=CARTESIAN_POINT('',(12.9999999999999,-11.0000000000001,2.));
#656=CARTESIAN_POINT('Origin',(12.9999999999999,73.,2.));
#657=UNCERTAINTY_MEASURE_WITH_UNIT(LENGTH_MEASURE(0.01),#661,
'DISTANCE_ACCURACY_VALUE',
'Maximum model space distance between geometric entities at asserted c
onnectivities');
#658=UNCERTAINTY_MEASURE_WITH_UNIT(LENGTH_MEASURE(0.01),#661,
'DISTANCE_ACCURACY_VALUE',
'Maximum model space distance between geometric entities at asserted c
onnectivities');
#659=(
GEOMETRIC_REPRESENTATION_CONTEXT(3)
GLOBAL_UNCERTAINTY_ASSIGNED_CONTEXT((#657))
GLOBAL_UNIT_ASSIGNED_CONTEXT((#661,#663,#664))
REPRESENTATION_CONTEXT('','3D')
);
#660=(
GEOMETRIC_REPRESENTATION_CONTEXT(3)
GLOBAL_UNCERTAINTY_ASSIGNED_CONTEXT((#658))
GLOBAL_UNIT_ASSIGNED_CONTEXT((#661,#663,#664))
REPRESENTATION_CONTEXT('','3D')
);
#661=(
LENGTH_UNIT()
NAMED_UNIT(*)
SI_UNIT(.MILLI.,.METRE.)
);
#662=(
LENGTH_UNIT()
NAMED_UNIT(*)
SI_UNIT(.CENTI.,.METRE.)
);
#663=(
NAMED_UNIT(*)
PLANE_ANGLE_UNIT()
SI_UNIT($,.RADIAN.)
);
#664=(
NAMED_UNIT(*)
SI_UNIT($,.STERADIAN.)
SOLID_ANGLE_UNIT()
);
#665=SHAPE_DEFINITION_REPRESENTATION(#666,#667);
#666=PRODUCT_DEFINITION_SHAPE('',$,#669);
#667=SHAPE_REPRESENTATION('',(#397),#659);
#668=PRODUCT_DEFINITION_CONTEXT('part definition',#673,'design');
#669=PRODUCT_DEFINITION('JPL30','JPL30',#670,#668);
#670=PRODUCT_DEFINITION_FORMATION('A00',$,#675);
#671=PRODUCT_RELATED_PRODUCT_CATEGORY('JPL30','JPL30',(#675));
#672=APPLICATION_PROTOCOL_DEFINITION('international standard',
'automotive_design',2009,#673);
#673=APPLICATION_CONTEXT(
'Core Data for Automotive Mechanical Design Process');
#674=PRODUCT_CONTEXT('part definition',#673,'mechanical');
#675=PRODUCT('JPL30','JPL30','Piastra di giunzione a L',(#674));
#676=PRESENTATION_STYLE_ASSIGNMENT((#677));
#677=SURFACE_STYLE_USAGE(.BOTH.,#680);
#678=SURFACE_STYLE_RENDERING_WITH_PROPERTIES($,#684,(#679));
#679=SURFACE_STYLE_TRANSPARENT(0.);
#680=SURFACE_SIDE_STYLE('',(#681,#678));
#681=SURFACE_STYLE_FILL_AREA(#682);
#682=FILL_AREA_STYLE('',(#683));
#683=FILL_AREA_STYLE_COLOUR('',#684);
#684=COLOUR_RGB('',0.647058823529412,0.67843137254902,0.694117647058824);
ENDSEC;
END-ISO-10303-21;
