ISO-10303-21;
HEADER;
/* Generated by software containing ST-Developer
 * from STEP Tools, Inc. (www.steptools.com) 
 */

FILE_DESCRIPTION(
/* description */ (''),
/* implementation_level */ '2;1');

FILE_NAME(
/* name */ 'HR32-32.stp',
/* time_stamp */ '2023-12-05T17:01:14+01:00',
/* author */ ('maritza.dallavecchia'),
/* organization */ (''),
/* preprocessor_version */ 'ST-DEVELOPER v20',
/* originating_system */ 'Autodesk Inventor 2024',
/* authorisation */ '');

FILE_SCHEMA (('AUTOMOTIVE_DESIGN { 1 0 10303 214 3 1 1 }'));
ENDSEC;

DATA;
#10=MECHANICAL_DESIGN_GEOMETRIC_PRESENTATION_REPRESENTATION('',(#27,#28),
#597);
#11=ITEM_DEFINED_TRANSFORMATION($,$,#376,#403);
#12=ITEM_DEFINED_TRANSFORMATION($,$,#367,#404);
#13=ITEM_DEFINED_TRANSFORMATION($,$,#376,#405);
#14=(
REPRESENTATION_RELATIONSHIP($,$,#613,#611)
REPRESENTATION_RELATIONSHIP_WITH_TRANSFORMATION(#11)
SHAPE_REPRESENTATION_RELATIONSHIP()
);
#15=(
REPRESENTATION_RELATIONSHIP($,$,#612,#611)
REPRESENTATION_RELATIONSHIP_WITH_TRANSFORMATION(#12)
SHAPE_REPRESENTATION_RELATIONSHIP()
);
#16=(
REPRESENTATION_RELATIONSHIP($,$,#613,#611)
REPRESENTATION_RELATIONSHIP_WITH_TRANSFORMATION(#13)
SHAPE_REPRESENTATION_RELATIONSHIP()
);
#17=CONTEXT_DEPENDENT_SHAPE_REPRESENTATION(#14,#608);
#18=CONTEXT_DEPENDENT_SHAPE_REPRESENTATION(#15,#609);
#19=CONTEXT_DEPENDENT_SHAPE_REPRESENTATION(#16,#610);
#20=NEXT_ASSEMBLY_USAGE_OCCURRENCE('HR32-32-01:1','HR32-32-01:1',
'HR32-32-01:1',#615,#617,'HR32-32-01:1');
#21=NEXT_ASSEMBLY_USAGE_OCCURRENCE('rondella_cerniera:1',
'rondella_cerniera:1','rondella_cerniera:1',#615,#616,
'rondella_cerniera:1');
#22=NEXT_ASSEMBLY_USAGE_OCCURRENCE('HR32-32-01:2','HR32-32-01:2',
'HR32-32-01:2',#615,#617,'HR32-32-01:2');
#23=SHAPE_REPRESENTATION_RELATIONSHIP('SRR','None',#612,#25);
#24=SHAPE_REPRESENTATION_RELATIONSHIP('SRR','None',#613,#26);
#25=ADVANCED_BREP_SHAPE_REPRESENTATION('',(#29),#595);
#26=ADVANCED_BREP_SHAPE_REPRESENTATION('',(#30),#596);
#27=STYLED_ITEM('',(#339),#29);
#28=STYLED_ITEM('',(#339),#30);
#29=MANIFOLD_SOLID_BREP('Solido1',#311);
#30=MANIFOLD_SOLID_BREP('Solido1',#312);
#31=LINE('',#516,#51);
#32=LINE('',#520,#52);
#33=LINE('',#527,#53);
#34=LINE('',#533,#54);
#35=LINE('',#539,#55);
#36=LINE('',#545,#56);
#37=LINE('',#551,#57);
#38=LINE('',#558,#58);
#39=LINE('',#561,#59);
#40=LINE('',#564,#60);
#41=LINE('',#566,#61);
#42=LINE('',#567,#62);
#43=LINE('',#570,#63);
#44=LINE('',#572,#64);
#45=LINE('',#573,#65);
#46=LINE('',#576,#66);
#47=LINE('',#578,#67);
#48=LINE('',#579,#68);
#49=LINE('',#581,#69);
#50=LINE('',#582,#70);
#51=VECTOR('',#420,3.1);
#52=VECTOR('',#425,4.9);
#53=VECTOR('',#434,3.05);
#54=VECTOR('',#441,3.25);
#55=VECTOR('',#448,5.25);
#56=VECTOR('',#455,3.25);
#57=VECTOR('',#462,5.25);
#58=VECTOR('',#469,1000.);
#59=VECTOR('',#472,1000.);
#60=VECTOR('',#475,1000.);
#61=VECTOR('',#476,1000.);
#62=VECTOR('',#477,1000.);
#63=VECTOR('',#480,1000.);
#64=VECTOR('',#481,1000.);
#65=VECTOR('',#482,1000.);
#66=VECTOR('',#485,1000.);
#67=VECTOR('',#486,1000.);
#68=VECTOR('',#487,1000.);
#69=VECTOR('',#490,1000.);
#70=VECTOR('',#491,1000.);
#71=CYLINDRICAL_SURFACE('',#371,3.1);
#72=CYLINDRICAL_SURFACE('',#373,4.9);
#73=CYLINDRICAL_SURFACE('',#377,3.05);
#74=CYLINDRICAL_SURFACE('',#380,3.25);
#75=CYLINDRICAL_SURFACE('',#383,5.25);
#76=CYLINDRICAL_SURFACE('',#386,3.25);
#77=CYLINDRICAL_SURFACE('',#389,5.25);
#78=CYLINDRICAL_SURFACE('',#392,6.);
#79=FACE_BOUND('',#108,.T.);
#80=FACE_BOUND('',#112,.T.);
#81=FACE_BOUND('',#121,.T.);
#82=FACE_BOUND('',#122,.T.);
#83=FACE_BOUND('',#125,.T.);
#84=FACE_BOUND('',#126,.T.);
#85=FACE_BOUND('',#128,.T.);
#86=FACE_BOUND('',#130,.T.);
#87=FACE_BOUND('',#132,.T.);
#88=FACE_BOUND('',#134,.T.);
#89=FACE_OUTER_BOUND('',#107,.T.);
#90=FACE_OUTER_BOUND('',#109,.T.);
#91=FACE_OUTER_BOUND('',#110,.T.);
#92=FACE_OUTER_BOUND('',#111,.T.);
#93=FACE_OUTER_BOUND('',#113,.T.);
#94=FACE_OUTER_BOUND('',#114,.T.);
#95=FACE_OUTER_BOUND('',#115,.T.);
#96=FACE_OUTER_BOUND('',#116,.T.);
#97=FACE_OUTER_BOUND('',#117,.T.);
#98=FACE_OUTER_BOUND('',#118,.T.);
#99=FACE_OUTER_BOUND('',#119,.T.);
#100=FACE_OUTER_BOUND('',#120,.T.);
#101=FACE_OUTER_BOUND('',#123,.T.);
#102=FACE_OUTER_BOUND('',#124,.T.);
#103=FACE_OUTER_BOUND('',#127,.T.);
#104=FACE_OUTER_BOUND('',#129,.T.);
#105=FACE_OUTER_BOUND('',#131,.T.);
#106=FACE_OUTER_BOUND('',#133,.T.);
#107=EDGE_LOOP('',(#211));
#108=EDGE_LOOP('',(#212));
#109=EDGE_LOOP('',(#213,#214,#215,#216));
#110=EDGE_LOOP('',(#217,#218,#219,#220));
#111=EDGE_LOOP('',(#221));
#112=EDGE_LOOP('',(#222));
#113=EDGE_LOOP('',(#223,#224,#225,#226));
#114=EDGE_LOOP('',(#227,#228,#229,#230));
#115=EDGE_LOOP('',(#231,#232,#233,#234));
#116=EDGE_LOOP('',(#235,#236,#237,#238));
#117=EDGE_LOOP('',(#239,#240,#241,#242));
#118=EDGE_LOOP('',(#243,#244,#245,#246));
#119=EDGE_LOOP('',(#247,#248,#249,#250));
#120=EDGE_LOOP('',(#251,#252,#253,#254));
#121=EDGE_LOOP('',(#255));
#122=EDGE_LOOP('',(#256));
#123=EDGE_LOOP('',(#257,#258,#259,#260));
#124=EDGE_LOOP('',(#261,#262,#263,#264));
#125=EDGE_LOOP('',(#265));
#126=EDGE_LOOP('',(#266));
#127=EDGE_LOOP('',(#267,#268,#269,#270,#271));
#128=EDGE_LOOP('',(#272));
#129=EDGE_LOOP('',(#273,#274,#275,#276,#277));
#130=EDGE_LOOP('',(#278));
#131=EDGE_LOOP('',(#279));
#132=EDGE_LOOP('',(#280));
#133=EDGE_LOOP('',(#281));
#134=EDGE_LOOP('',(#282));
#135=CIRCLE('',#369,4.9);
#136=CIRCLE('',#370,3.1);
#137=CIRCLE('',#372,3.1);
#138=CIRCLE('',#374,4.9);
#139=CIRCLE('',#378,3.05);
#140=CIRCLE('',#379,3.05);
#141=CIRCLE('',#381,3.25);
#142=CIRCLE('',#382,3.25);
#143=CIRCLE('',#384,5.25);
#144=CIRCLE('',#385,5.25);
#145=CIRCLE('',#387,3.25);
#146=CIRCLE('',#388,3.25);
#147=CIRCLE('',#390,5.25);
#148=CIRCLE('',#391,5.25);
#149=CIRCLE('',#393,6.);
#150=CIRCLE('',#394,6.);
#151=VERTEX_POINT('',#509);
#152=VERTEX_POINT('',#511);
#153=VERTEX_POINT('',#514);
#154=VERTEX_POINT('',#518);
#155=VERTEX_POINT('',#524);
#156=VERTEX_POINT('',#526);
#157=VERTEX_POINT('',#530);
#158=VERTEX_POINT('',#532);
#159=VERTEX_POINT('',#536);
#160=VERTEX_POINT('',#538);
#161=VERTEX_POINT('',#542);
#162=VERTEX_POINT('',#544);
#163=VERTEX_POINT('',#548);
#164=VERTEX_POINT('',#550);
#165=VERTEX_POINT('',#554);
#166=VERTEX_POINT('',#555);
#167=VERTEX_POINT('',#557);
#168=VERTEX_POINT('',#559);
#169=VERTEX_POINT('',#563);
#170=VERTEX_POINT('',#565);
#171=VERTEX_POINT('',#569);
#172=VERTEX_POINT('',#571);
#173=VERTEX_POINT('',#575);
#174=VERTEX_POINT('',#577);
#175=EDGE_CURVE('',#151,#151,#135,.T.);
#176=EDGE_CURVE('',#152,#152,#136,.T.);
#177=EDGE_CURVE('',#153,#153,#137,.T.);
#178=EDGE_CURVE('',#153,#152,#31,.T.);
#179=EDGE_CURVE('',#154,#154,#138,.T.);
#180=EDGE_CURVE('',#154,#151,#32,.T.);
#181=EDGE_CURVE('',#155,#155,#139,.T.);
#182=EDGE_CURVE('',#155,#156,#33,.T.);
#183=EDGE_CURVE('',#156,#156,#140,.T.);
#184=EDGE_CURVE('',#157,#157,#141,.T.);
#185=EDGE_CURVE('',#157,#158,#34,.T.);
#186=EDGE_CURVE('',#158,#158,#142,.T.);
#187=EDGE_CURVE('',#159,#159,#143,.T.);
#188=EDGE_CURVE('',#159,#160,#35,.T.);
#189=EDGE_CURVE('',#160,#160,#144,.T.);
#190=EDGE_CURVE('',#161,#161,#145,.T.);
#191=EDGE_CURVE('',#161,#162,#36,.T.);
#192=EDGE_CURVE('',#162,#162,#146,.T.);
#193=EDGE_CURVE('',#163,#163,#147,.T.);
#194=EDGE_CURVE('',#163,#164,#37,.T.);
#195=EDGE_CURVE('',#164,#164,#148,.T.);
#196=EDGE_CURVE('',#165,#166,#149,.T.);
#197=EDGE_CURVE('',#167,#166,#38,.T.);
#198=EDGE_CURVE('',#168,#167,#150,.T.);
#199=EDGE_CURVE('',#168,#165,#39,.T.);
#200=EDGE_CURVE('',#166,#169,#40,.T.);
#201=EDGE_CURVE('',#170,#169,#41,.T.);
#202=EDGE_CURVE('',#167,#170,#42,.T.);
#203=EDGE_CURVE('',#169,#171,#43,.T.);
#204=EDGE_CURVE('',#172,#171,#44,.T.);
#205=EDGE_CURVE('',#170,#172,#45,.T.);
#206=EDGE_CURVE('',#171,#173,#46,.T.);
#207=EDGE_CURVE('',#174,#173,#47,.T.);
#208=EDGE_CURVE('',#172,#174,#48,.T.);
#209=EDGE_CURVE('',#173,#165,#49,.T.);
#210=EDGE_CURVE('',#174,#168,#50,.T.);
#211=ORIENTED_EDGE('',*,*,#175,.T.);
#212=ORIENTED_EDGE('',*,*,#176,.T.);
#213=ORIENTED_EDGE('',*,*,#177,.F.);
#214=ORIENTED_EDGE('',*,*,#178,.T.);
#215=ORIENTED_EDGE('',*,*,#176,.F.);
#216=ORIENTED_EDGE('',*,*,#178,.F.);
#217=ORIENTED_EDGE('',*,*,#179,.F.);
#218=ORIENTED_EDGE('',*,*,#180,.T.);
#219=ORIENTED_EDGE('',*,*,#175,.F.);
#220=ORIENTED_EDGE('',*,*,#180,.F.);
#221=ORIENTED_EDGE('',*,*,#179,.T.);
#222=ORIENTED_EDGE('',*,*,#177,.T.);
#223=ORIENTED_EDGE('',*,*,#181,.F.);
#224=ORIENTED_EDGE('',*,*,#182,.T.);
#225=ORIENTED_EDGE('',*,*,#183,.T.);
#226=ORIENTED_EDGE('',*,*,#182,.F.);
#227=ORIENTED_EDGE('',*,*,#184,.F.);
#228=ORIENTED_EDGE('',*,*,#185,.T.);
#229=ORIENTED_EDGE('',*,*,#186,.T.);
#230=ORIENTED_EDGE('',*,*,#185,.F.);
#231=ORIENTED_EDGE('',*,*,#187,.F.);
#232=ORIENTED_EDGE('',*,*,#188,.T.);
#233=ORIENTED_EDGE('',*,*,#189,.T.);
#234=ORIENTED_EDGE('',*,*,#188,.F.);
#235=ORIENTED_EDGE('',*,*,#190,.F.);
#236=ORIENTED_EDGE('',*,*,#191,.T.);
#237=ORIENTED_EDGE('',*,*,#192,.T.);
#238=ORIENTED_EDGE('',*,*,#191,.F.);
#239=ORIENTED_EDGE('',*,*,#193,.F.);
#240=ORIENTED_EDGE('',*,*,#194,.T.);
#241=ORIENTED_EDGE('',*,*,#195,.T.);
#242=ORIENTED_EDGE('',*,*,#194,.F.);
#243=ORIENTED_EDGE('',*,*,#196,.T.);
#244=ORIENTED_EDGE('',*,*,#197,.F.);
#245=ORIENTED_EDGE('',*,*,#198,.F.);
#246=ORIENTED_EDGE('',*,*,#199,.T.);
#247=ORIENTED_EDGE('',*,*,#200,.T.);
#248=ORIENTED_EDGE('',*,*,#201,.F.);
#249=ORIENTED_EDGE('',*,*,#202,.F.);
#250=ORIENTED_EDGE('',*,*,#197,.T.);
#251=ORIENTED_EDGE('',*,*,#203,.T.);
#252=ORIENTED_EDGE('',*,*,#204,.F.);
#253=ORIENTED_EDGE('',*,*,#205,.F.);
#254=ORIENTED_EDGE('',*,*,#201,.T.);
#255=ORIENTED_EDGE('',*,*,#189,.F.);
#256=ORIENTED_EDGE('',*,*,#195,.F.);
#257=ORIENTED_EDGE('',*,*,#206,.T.);
#258=ORIENTED_EDGE('',*,*,#207,.F.);
#259=ORIENTED_EDGE('',*,*,#208,.F.);
#260=ORIENTED_EDGE('',*,*,#204,.T.);
#261=ORIENTED_EDGE('',*,*,#209,.T.);
#262=ORIENTED_EDGE('',*,*,#199,.F.);
#263=ORIENTED_EDGE('',*,*,#210,.F.);
#264=ORIENTED_EDGE('',*,*,#207,.T.);
#265=ORIENTED_EDGE('',*,*,#184,.T.);
#266=ORIENTED_EDGE('',*,*,#190,.T.);
#267=ORIENTED_EDGE('',*,*,#198,.T.);
#268=ORIENTED_EDGE('',*,*,#202,.T.);
#269=ORIENTED_EDGE('',*,*,#205,.T.);
#270=ORIENTED_EDGE('',*,*,#208,.T.);
#271=ORIENTED_EDGE('',*,*,#210,.T.);
#272=ORIENTED_EDGE('',*,*,#183,.F.);
#273=ORIENTED_EDGE('',*,*,#196,.F.);
#274=ORIENTED_EDGE('',*,*,#209,.F.);
#275=ORIENTED_EDGE('',*,*,#206,.F.);
#276=ORIENTED_EDGE('',*,*,#203,.F.);
#277=ORIENTED_EDGE('',*,*,#200,.F.);
#278=ORIENTED_EDGE('',*,*,#181,.T.);
#279=ORIENTED_EDGE('',*,*,#193,.T.);
#280=ORIENTED_EDGE('',*,*,#192,.F.);
#281=ORIENTED_EDGE('',*,*,#187,.T.);
#282=ORIENTED_EDGE('',*,*,#186,.F.);
#283=PLANE('',#368);
#284=PLANE('',#375);
#285=PLANE('',#395);
#286=PLANE('',#396);
#287=PLANE('',#397);
#288=PLANE('',#398);
#289=PLANE('',#399);
#290=PLANE('',#400);
#291=PLANE('',#401);
#292=PLANE('',#402);
#293=ADVANCED_FACE('',(#89,#79),#283,.F.);
#294=ADVANCED_FACE('',(#90),#71,.F.);
#295=ADVANCED_FACE('',(#91),#72,.T.);
#296=ADVANCED_FACE('',(#92,#80),#284,.T.);
#297=ADVANCED_FACE('',(#93),#73,.F.);
#298=ADVANCED_FACE('',(#94),#74,.F.);
#299=ADVANCED_FACE('',(#95),#75,.F.);
#300=ADVANCED_FACE('',(#96),#76,.F.);
#301=ADVANCED_FACE('',(#97),#77,.F.);
#302=ADVANCED_FACE('',(#98),#78,.T.);
#303=ADVANCED_FACE('',(#99),#285,.F.);
#304=ADVANCED_FACE('',(#100,#81,#82),#286,.F.);
#305=ADVANCED_FACE('',(#101),#287,.F.);
#306=ADVANCED_FACE('',(#102,#83,#84),#288,.F.);
#307=ADVANCED_FACE('',(#103,#85),#289,.T.);
#308=ADVANCED_FACE('',(#104,#86),#290,.F.);
#309=ADVANCED_FACE('',(#105,#87),#291,.F.);
#310=ADVANCED_FACE('',(#106,#88),#292,.F.);
#311=CLOSED_SHELL('',(#293,#294,#295,#296));
#312=CLOSED_SHELL('',(#297,#298,#299,#300,#301,#302,#303,#304,#305,#306,
#307,#308,#309,#310));
#313=DERIVED_UNIT_ELEMENT(#318,1.);
#314=DERIVED_UNIT_ELEMENT(#599,-3.);
#315=DERIVED_UNIT_ELEMENT(#318,1.);
#316=DERIVED_UNIT_ELEMENT(#599,-3.);
#317=DIMENSIONAL_EXPONENTS(0.,1.,0.,0.,0.,0.,0.);
#318=(
CONVERSION_BASED_UNIT('gram',#320)
MASS_UNIT()
NAMED_UNIT(#317)
);
#319=(
MASS_UNIT()
NAMED_UNIT(*)
SI_UNIT(.KILO.,.GRAM.)
);
#320=MASS_MEASURE_WITH_UNIT(MASS_MEASURE(0.001),#319);
#321=DERIVED_UNIT((#313,#314));
#322=DERIVED_UNIT((#315,#316));
#323=MEASURE_REPRESENTATION_ITEM('density measure',
POSITIVE_RATIO_MEASURE(1.),#321);
#324=MEASURE_REPRESENTATION_ITEM('density measure',
POSITIVE_RATIO_MEASURE(1.),#322);
#325=PROPERTY_DEFINITION_REPRESENTATION(#335,#329);
#326=PROPERTY_DEFINITION_REPRESENTATION(#336,#330);
#327=PROPERTY_DEFINITION_REPRESENTATION(#337,#331);
#328=PROPERTY_DEFINITION_REPRESENTATION(#338,#332);
#329=REPRESENTATION('material name',(#333),#595);
#330=REPRESENTATION('density',(#323),#595);
#331=REPRESENTATION('material name',(#334),#596);
#332=REPRESENTATION('density',(#324),#596);
#333=DESCRIPTIVE_REPRESENTATION_ITEM('Generico','Generico');
#334=DESCRIPTIVE_REPRESENTATION_ITEM('Generico','Generico');
#335=PROPERTY_DEFINITION('material property','material name',#616);
#336=PROPERTY_DEFINITION('material property','density of part',#616);
#337=PROPERTY_DEFINITION('material property','material name',#617);
#338=PROPERTY_DEFINITION('material property','density of part',#617);
#339=PRESENTATION_STYLE_ASSIGNMENT((#340));
#340=SURFACE_STYLE_USAGE(.BOTH.,#343);
#341=SURFACE_STYLE_RENDERING_WITH_PROPERTIES($,#347,(#342));
#342=SURFACE_STYLE_TRANSPARENT(0.);
#343=SURFACE_SIDE_STYLE('',(#344,#341));
#344=SURFACE_STYLE_FILL_AREA(#345);
#345=FILL_AREA_STYLE('',(#346));
#346=FILL_AREA_STYLE_COLOUR('',#347);
#347=COLOUR_RGB('',0.749019607843137,0.749019607843137,0.749019607843137);
#348=DATE_TIME_ROLE('creation_date');
#349=DATE_TIME_ROLE('creation_date');
#350=DATE_TIME_ROLE('creation_date');
#351=APPLIED_DATE_AND_TIME_ASSIGNMENT(#354,#348,(#615));
#352=APPLIED_DATE_AND_TIME_ASSIGNMENT(#355,#349,(#616));
#353=APPLIED_DATE_AND_TIME_ASSIGNMENT(#356,#350,(#617));
#354=DATE_AND_TIME(#357,#360);
#355=DATE_AND_TIME(#358,#361);
#356=DATE_AND_TIME(#359,#362);
#357=CALENDAR_DATE(2023,5,12);
#358=CALENDAR_DATE(2023,5,12);
#359=CALENDAR_DATE(2019,13,3);
#360=LOCAL_TIME(0,0,0.,#363);
#361=LOCAL_TIME(0,0,0.,#364);
#362=LOCAL_TIME(10,52,58.,#365);
#363=COORDINATED_UNIVERSAL_TIME_OFFSET(0,0,.BEHIND.);
#364=COORDINATED_UNIVERSAL_TIME_OFFSET(0,0,.BEHIND.);
#365=COORDINATED_UNIVERSAL_TIME_OFFSET(0,0,.BEHIND.);
#366=AXIS2_PLACEMENT_3D('',#506,#406,#407);
#367=AXIS2_PLACEMENT_3D('',#507,#408,#409);
#368=AXIS2_PLACEMENT_3D('',#508,#410,#411);
#369=AXIS2_PLACEMENT_3D('',#510,#412,#413);
#370=AXIS2_PLACEMENT_3D('',#512,#414,#415);
#371=AXIS2_PLACEMENT_3D('',#513,#416,#417);
#372=AXIS2_PLACEMENT_3D('',#515,#418,#419);
#373=AXIS2_PLACEMENT_3D('',#517,#421,#422);
#374=AXIS2_PLACEMENT_3D('',#519,#423,#424);
#375=AXIS2_PLACEMENT_3D('',#521,#426,#427);
#376=AXIS2_PLACEMENT_3D('',#522,#428,#429);
#377=AXIS2_PLACEMENT_3D('',#523,#430,#431);
#378=AXIS2_PLACEMENT_3D('',#525,#432,#433);
#379=AXIS2_PLACEMENT_3D('',#528,#435,#436);
#380=AXIS2_PLACEMENT_3D('',#529,#437,#438);
#381=AXIS2_PLACEMENT_3D('',#531,#439,#440);
#382=AXIS2_PLACEMENT_3D('',#534,#442,#443);
#383=AXIS2_PLACEMENT_3D('',#535,#444,#445);
#384=AXIS2_PLACEMENT_3D('',#537,#446,#447);
#385=AXIS2_PLACEMENT_3D('',#540,#449,#450);
#386=AXIS2_PLACEMENT_3D('',#541,#451,#452);
#387=AXIS2_PLACEMENT_3D('',#543,#453,#454);
#388=AXIS2_PLACEMENT_3D('',#546,#456,#457);
#389=AXIS2_PLACEMENT_3D('',#547,#458,#459);
#390=AXIS2_PLACEMENT_3D('',#549,#460,#461);
#391=AXIS2_PLACEMENT_3D('',#552,#463,#464);
#392=AXIS2_PLACEMENT_3D('',#553,#465,#466);
#393=AXIS2_PLACEMENT_3D('',#556,#467,#468);
#394=AXIS2_PLACEMENT_3D('',#560,#470,#471);
#395=AXIS2_PLACEMENT_3D('',#562,#473,#474);
#396=AXIS2_PLACEMENT_3D('',#568,#478,#479);
#397=AXIS2_PLACEMENT_3D('',#574,#483,#484);
#398=AXIS2_PLACEMENT_3D('',#580,#488,#489);
#399=AXIS2_PLACEMENT_3D('',#583,#492,#493);
#400=AXIS2_PLACEMENT_3D('',#584,#494,#495);
#401=AXIS2_PLACEMENT_3D('',#585,#496,#497);
#402=AXIS2_PLACEMENT_3D('',#586,#498,#499);
#403=AXIS2_PLACEMENT_3D('',#587,#500,#501);
#404=AXIS2_PLACEMENT_3D('',#588,#502,#503);
#405=AXIS2_PLACEMENT_3D('',#589,#504,#505);
#406=DIRECTION('axis',(0.,0.,1.));
#407=DIRECTION('refdir',(1.,0.,0.));
#408=DIRECTION('axis',(0.,0.,1.));
#409=DIRECTION('refdir',(1.,0.,0.));
#410=DIRECTION('center_axis',(0.,0.,1.));
#411=DIRECTION('ref_axis',(1.,0.,0.));
#412=DIRECTION('center_axis',(0.,0.,-1.));
#413=DIRECTION('ref_axis',(1.,0.,0.));
#414=DIRECTION('center_axis',(0.,0.,1.));
#415=DIRECTION('ref_axis',(-1.,0.,0.));
#416=DIRECTION('center_axis',(0.,0.,1.));
#417=DIRECTION('ref_axis',(-1.,0.,0.));
#418=DIRECTION('center_axis',(0.,0.,-1.));
#419=DIRECTION('ref_axis',(-1.,0.,0.));
#420=DIRECTION('',(0.,0.,-1.));
#421=DIRECTION('center_axis',(0.,0.,1.));
#422=DIRECTION('ref_axis',(1.,0.,0.));
#423=DIRECTION('center_axis',(0.,0.,1.));
#424=DIRECTION('ref_axis',(1.,0.,0.));
#425=DIRECTION('',(0.,0.,-1.));
#426=DIRECTION('center_axis',(0.,0.,1.));
#427=DIRECTION('ref_axis',(1.,0.,0.));
#428=DIRECTION('axis',(0.,0.,1.));
#429=DIRECTION('refdir',(1.,0.,0.));
#430=DIRECTION('center_axis',(0.,1.,0.));
#431=DIRECTION('ref_axis',(0.,0.,1.));
#432=DIRECTION('center_axis',(0.,1.,0.));
#433=DIRECTION('ref_axis',(0.,0.,1.));
#434=DIRECTION('',(0.,1.,0.));
#435=DIRECTION('center_axis',(0.,1.,0.));
#436=DIRECTION('ref_axis',(0.,0.,1.));
#437=DIRECTION('center_axis',(0.,0.,1.));
#438=DIRECTION('ref_axis',(1.,0.,0.));
#439=DIRECTION('center_axis',(0.,0.,1.));
#440=DIRECTION('ref_axis',(1.,0.,0.));
#441=DIRECTION('',(0.,0.,1.));
#442=DIRECTION('center_axis',(0.,0.,1.));
#443=DIRECTION('ref_axis',(1.,0.,0.));
#444=DIRECTION('center_axis',(0.,0.,1.));
#445=DIRECTION('ref_axis',(1.,0.,0.));
#446=DIRECTION('center_axis',(0.,0.,1.));
#447=DIRECTION('ref_axis',(1.,0.,0.));
#448=DIRECTION('',(0.,0.,1.));
#449=DIRECTION('center_axis',(0.,0.,1.));
#450=DIRECTION('ref_axis',(1.,0.,0.));
#451=DIRECTION('center_axis',(0.,0.,1.));
#452=DIRECTION('ref_axis',(1.,0.,0.));
#453=DIRECTION('center_axis',(0.,0.,1.));
#454=DIRECTION('ref_axis',(1.,0.,0.));
#455=DIRECTION('',(0.,0.,1.));
#456=DIRECTION('center_axis',(0.,0.,1.));
#457=DIRECTION('ref_axis',(1.,0.,0.));
#458=DIRECTION('center_axis',(0.,0.,1.));
#459=DIRECTION('ref_axis',(1.,0.,0.));
#460=DIRECTION('center_axis',(0.,0.,1.));
#461=DIRECTION('ref_axis',(1.,0.,0.));
#462=DIRECTION('',(0.,0.,1.));
#463=DIRECTION('center_axis',(0.,0.,1.));
#464=DIRECTION('ref_axis',(1.,0.,0.));
#465=DIRECTION('center_axis',(0.,-1.,0.));
#466=DIRECTION('ref_axis',(0.,0.,-1.));
#467=DIRECTION('center_axis',(0.,1.,0.));
#468=DIRECTION('ref_axis',(0.,0.,1.));
#469=DIRECTION('',(0.,-1.,0.));
#470=DIRECTION('center_axis',(0.,1.,0.));
#471=DIRECTION('ref_axis',(0.,0.,1.));
#472=DIRECTION('',(0.,-1.,0.));
#473=DIRECTION('center_axis',(0.422618261740694,0.,-0.906307787036653));
#474=DIRECTION('ref_axis',(-0.906307787036653,0.,-0.422618261740694));
#475=DIRECTION('',(0.906307787036653,0.,0.422618261740694));
#476=DIRECTION('',(0.,-1.,0.));
#477=DIRECTION('',(0.906307787036653,0.,0.422618261740694));
#478=DIRECTION('center_axis',(0.,0.,-1.));
#479=DIRECTION('ref_axis',(-1.,0.,0.));
#480=DIRECTION('',(1.,0.,0.));
#481=DIRECTION('',(0.,-1.,0.));
#482=DIRECTION('',(1.,0.,0.));
#483=DIRECTION('center_axis',(-1.,0.,0.));
#484=DIRECTION('ref_axis',(0.,0.,1.));
#485=DIRECTION('',(0.,0.,-1.));
#486=DIRECTION('',(0.,-1.,0.));
#487=DIRECTION('',(0.,0.,-1.));
#488=DIRECTION('center_axis',(3.25260651745651E-16,0.,1.));
#489=DIRECTION('ref_axis',(1.,0.,-3.25260651745651E-16));
#490=DIRECTION('',(-1.,0.,3.25260651745651E-16));
#491=DIRECTION('',(-1.,0.,3.25260651745651E-16));
#492=DIRECTION('center_axis',(0.,1.,0.));
#493=DIRECTION('ref_axis',(0.,0.,1.));
#494=DIRECTION('center_axis',(0.,1.,0.));
#495=DIRECTION('ref_axis',(0.,0.,1.));
#496=DIRECTION('center_axis',(0.,0.,-1.));
#497=DIRECTION('ref_axis',(-1.,0.,0.));
#498=DIRECTION('center_axis',(0.,0.,-1.));
#499=DIRECTION('ref_axis',(-1.,0.,0.));
#500=DIRECTION('',(2.43441481977999E-15,1.,6.10622663543845E-16));
#501=DIRECTION('',(1.,-2.43441481978E-15,1.82139501427589E-15));
#502=DIRECTION('',(0.,0.,1.));
#503=DIRECTION('',(1.,0.,0.));
#504=DIRECTION('',(0.431869719301638,0.901935998588771,9.53041962141389E-16));
#505=DIRECTION('',(-0.901935998588771,0.431869719301638,4.39426385874681E-18));
#506=CARTESIAN_POINT('',(0.,0.,0.));
#507=CARTESIAN_POINT('',(0.,0.,0.));
#508=CARTESIAN_POINT('Origin',(0.,0.,-0.15));
#509=CARTESIAN_POINT('',(-4.9,-6.00076931582203E-16,-0.15));
#510=CARTESIAN_POINT('Origin',(0.,0.,-0.15));
#511=CARTESIAN_POINT('',(3.1,3.7964050773568E-16,-0.15));
#512=CARTESIAN_POINT('Origin',(0.,0.,-0.15));
#513=CARTESIAN_POINT('Origin',(0.,0.,0.));
#514=CARTESIAN_POINT('',(3.1,3.7964050773568E-16,0.15));
#515=CARTESIAN_POINT('Origin',(0.,0.,0.15));
#516=CARTESIAN_POINT('',(3.1,3.7964050773568E-16,0.));
#517=CARTESIAN_POINT('Origin',(0.,0.,0.));
#518=CARTESIAN_POINT('',(-4.9,-6.00076931582203E-16,0.15));
#519=CARTESIAN_POINT('Origin',(0.,0.,0.15));
#520=CARTESIAN_POINT('',(-4.9,-6.00076931582203E-16,0.));
#521=CARTESIAN_POINT('Origin',(0.,0.,0.15));
#522=CARTESIAN_POINT('',(0.,0.,0.));
#523=CARTESIAN_POINT('Origin',(-14.2942162623743,-20.0777582774595,40.));
#524=CARTESIAN_POINT('',(-14.2942162623743,-20.0777582774595,36.95));
#525=CARTESIAN_POINT('Origin',(-14.2942162623743,-20.0777582774595,40.));
#526=CARTESIAN_POINT('',(-14.2942162623743,19.9222417225405,36.95));
#527=CARTESIAN_POINT('',(-14.2942162623743,-20.0777582774595,36.95));
#528=CARTESIAN_POINT('Origin',(-14.2942162623743,19.9222417225405,40.));
#529=CARTESIAN_POINT('Origin',(-4.29421626237425,12.4222417225405,46.));
#530=CARTESIAN_POINT('',(-7.54421626237425,12.4222417225405,34.));
#531=CARTESIAN_POINT('Origin',(-4.29421626237425,12.4222417225405,34.));
#532=CARTESIAN_POINT('',(-7.54421626237425,12.4222417225405,41.5));
#533=CARTESIAN_POINT('',(-7.54421626237425,12.4222417225405,46.));
#534=CARTESIAN_POINT('Origin',(-4.29421626237425,12.4222417225405,41.5));
#535=CARTESIAN_POINT('Origin',(-4.29421626237425,12.4222417225405,46.));
#536=CARTESIAN_POINT('',(-9.54421626237425,12.4222417225405,41.5));
#537=CARTESIAN_POINT('Origin',(-4.29421626237425,12.4222417225405,41.5));
#538=CARTESIAN_POINT('',(-9.54421626237425,12.4222417225405,46.));
#539=CARTESIAN_POINT('',(-9.54421626237425,12.4222417225405,46.));
#540=CARTESIAN_POINT('Origin',(-4.29421626237425,12.4222417225405,46.));
#541=CARTESIAN_POINT('Origin',(-4.29421626237425,-12.5777582774595,46.));
#542=CARTESIAN_POINT('',(-7.54421626237425,-12.5777582774595,34.));
#543=CARTESIAN_POINT('Origin',(-4.29421626237425,-12.5777582774595,34.));
#544=CARTESIAN_POINT('',(-7.54421626237425,-12.5777582774595,41.5));
#545=CARTESIAN_POINT('',(-7.54421626237425,-12.5777582774595,46.));
#546=CARTESIAN_POINT('Origin',(-4.29421626237425,-12.5777582774595,41.5));
#547=CARTESIAN_POINT('Origin',(-4.29421626237425,-12.5777582774595,46.));
#548=CARTESIAN_POINT('',(-9.54421626237425,-12.5777582774595,41.5));
#549=CARTESIAN_POINT('Origin',(-4.29421626237425,-12.5777582774595,41.5));
#550=CARTESIAN_POINT('',(-9.54421626237425,-12.5777582774595,46.));
#551=CARTESIAN_POINT('',(-9.54421626237425,-12.5777582774595,46.));
#552=CARTESIAN_POINT('Origin',(-4.29421626237425,-12.5777582774595,46.));
#553=CARTESIAN_POINT('Origin',(-13.2942162623742,19.9222417225405,40.));
#554=CARTESIAN_POINT('',(-13.2942162623742,-20.0777582774595,34.));
#555=CARTESIAN_POINT('',(-18.112716411812,-20.0777582774595,43.5752001775941));
#556=CARTESIAN_POINT('Origin',(-13.2942162623742,-20.0777582774595,40.));
#557=CARTESIAN_POINT('',(-18.112716411812,19.9222417225405,43.5752001775941));
#558=CARTESIAN_POINT('',(-18.112716411812,19.9222417225405,43.5752001775941));
#559=CARTESIAN_POINT('',(-13.2942162623742,19.9222417225405,34.));
#560=CARTESIAN_POINT('Origin',(-13.2942162623742,19.9222417225405,40.));
#561=CARTESIAN_POINT('',(-13.2942162623742,19.9222417225405,34.));
#562=CARTESIAN_POINT('Origin',(-12.912716411812,19.9222417225405,46.));
#563=CARTESIAN_POINT('',(-12.912716411812,-20.0777582774595,46.));
#564=CARTESIAN_POINT('',(-12.912716411812,-20.0777582774595,46.));
#565=CARTESIAN_POINT('',(-12.912716411812,19.9222417225405,46.));
#566=CARTESIAN_POINT('',(-12.912716411812,19.9222417225405,46.));
#567=CARTESIAN_POINT('',(-12.912716411812,19.9222417225405,46.));
#568=CARTESIAN_POINT('Origin',(-12.912716411812,19.9222417225405,46.));
#569=CARTESIAN_POINT('',(2.70578373762575,-20.0777582774595,46.));
#570=CARTESIAN_POINT('',(-12.912716411812,-20.0777582774595,46.));
#571=CARTESIAN_POINT('',(2.70578373762575,19.9222417225405,46.));
#572=CARTESIAN_POINT('',(2.70578373762575,19.9222417225405,46.));
#573=CARTESIAN_POINT('',(-12.912716411812,19.9222417225405,46.));
#574=CARTESIAN_POINT('Origin',(2.70578373762575,19.9222417225405,34.));
#575=CARTESIAN_POINT('',(2.70578373762575,-20.0777582774595,34.));
#576=CARTESIAN_POINT('',(2.70578373762575,-20.0777582774595,34.));
#577=CARTESIAN_POINT('',(2.70578373762575,19.9222417225405,34.));
#578=CARTESIAN_POINT('',(2.70578373762575,19.9222417225405,34.));
#579=CARTESIAN_POINT('',(2.70578373762575,19.9222417225405,34.));
#580=CARTESIAN_POINT('Origin',(-13.2942162623742,19.9222417225405,34.));
#581=CARTESIAN_POINT('',(-13.2942162623742,-20.0777582774595,34.));
#582=CARTESIAN_POINT('',(-13.2942162623742,19.9222417225405,34.));
#583=CARTESIAN_POINT('Origin',(-13.2942162623742,19.9222417225405,40.));
#584=CARTESIAN_POINT('Origin',(-13.2942162623742,-20.0777582774595,40.));
#585=CARTESIAN_POINT('Origin',(-1.04421626237425,-12.5777582774595,41.5));
#586=CARTESIAN_POINT('Origin',(-1.04421626237425,12.4222417225405,41.5));
#587=CARTESIAN_POINT('',(0.,0.,0.));
#588=CARTESIAN_POINT('',(-14.2942162623741,39.9999999999994,-20.0722417225403));
#589=CARTESIAN_POINT('',(-44.4614732530875,10.0957992213178,-40.1444834450802));
#590=UNCERTAINTY_MEASURE_WITH_UNIT(LENGTH_MEASURE(0.01),#598,
'DISTANCE_ACCURACY_VALUE',
'Maximum model space distance between geometric entities at asserted c
onnectivities');
#591=UNCERTAINTY_MEASURE_WITH_UNIT(LENGTH_MEASURE(0.01),#598,
'DISTANCE_ACCURACY_VALUE',
'Maximum model space distance between geometric entities at asserted c
onnectivities');
#592=UNCERTAINTY_MEASURE_WITH_UNIT(LENGTH_MEASURE(0.01),#598,
'DISTANCE_ACCURACY_VALUE',
'Maximum model space distance between geometric entities at asserted c
onnectivities');
#593=UNCERTAINTY_MEASURE_WITH_UNIT(LENGTH_MEASURE(0.01),#598,
'DISTANCE_ACCURACY_VALUE',
'Maximum model space distance between geometric entities at asserted c
onnectivities');
#594=(
GEOMETRIC_REPRESENTATION_CONTEXT(3)
GLOBAL_UNCERTAINTY_ASSIGNED_CONTEXT((#590))
GLOBAL_UNIT_ASSIGNED_CONTEXT((#598,#600,#601))
REPRESENTATION_CONTEXT('','3D')
);
#595=(
GEOMETRIC_REPRESENTATION_CONTEXT(3)
GLOBAL_UNCERTAINTY_ASSIGNED_CONTEXT((#591))
GLOBAL_UNIT_ASSIGNED_CONTEXT((#598,#600,#601))
REPRESENTATION_CONTEXT('','3D')
);
#596=(
GEOMETRIC_REPRESENTATION_CONTEXT(3)
GLOBAL_UNCERTAINTY_ASSIGNED_CONTEXT((#592))
GLOBAL_UNIT_ASSIGNED_CONTEXT((#598,#600,#601))
REPRESENTATION_CONTEXT('','3D')
);
#597=(
GEOMETRIC_REPRESENTATION_CONTEXT(3)
GLOBAL_UNCERTAINTY_ASSIGNED_CONTEXT((#593))
GLOBAL_UNIT_ASSIGNED_CONTEXT((#598,#600,#601))
REPRESENTATION_CONTEXT('','3D')
);
#598=(
LENGTH_UNIT()
NAMED_UNIT(*)
SI_UNIT(.MILLI.,.METRE.)
);
#599=(
LENGTH_UNIT()
NAMED_UNIT(*)
SI_UNIT(.CENTI.,.METRE.)
);
#600=(
NAMED_UNIT(*)
PLANE_ANGLE_UNIT()
SI_UNIT($,.RADIAN.)
);
#601=(
NAMED_UNIT(*)
SI_UNIT($,.STERADIAN.)
SOLID_ANGLE_UNIT()
);
#602=SHAPE_DEFINITION_REPRESENTATION(#605,#611);
#603=SHAPE_DEFINITION_REPRESENTATION(#606,#612);
#604=SHAPE_DEFINITION_REPRESENTATION(#607,#613);
#605=PRODUCT_DEFINITION_SHAPE('',$,#615);
#606=PRODUCT_DEFINITION_SHAPE('',$,#616);
#607=PRODUCT_DEFINITION_SHAPE('',$,#617);
#608=PRODUCT_DEFINITION_SHAPE($,$,#20);
#609=PRODUCT_DEFINITION_SHAPE($,$,#21);
#610=PRODUCT_DEFINITION_SHAPE($,$,#22);
#611=SHAPE_REPRESENTATION('',(#366,#403,#404,#405),#594);
#612=SHAPE_REPRESENTATION('',(#367),#595);
#613=SHAPE_REPRESENTATION('',(#376),#596);
#614=PRODUCT_DEFINITION_CONTEXT('part definition',#625,'design');
#615=PRODUCT_DEFINITION('HR32-32','HR32-32',#618,#614);
#616=PRODUCT_DEFINITION('rondella_cerniera','rondella_cerniera',#619,#614);
#617=PRODUCT_DEFINITION('HR32-32-01','HR32-32-01',#620,#614);
#618=PRODUCT_DEFINITION_FORMATION('',$,#627);
#619=PRODUCT_DEFINITION_FORMATION('',$,#628);
#620=PRODUCT_DEFINITION_FORMATION('',$,#629);
#621=PRODUCT_RELATED_PRODUCT_CATEGORY('HR32-32','HR32-32',(#627));
#622=PRODUCT_RELATED_PRODUCT_CATEGORY('rondella_cerniera',
'rondella_cerniera',(#628));
#623=PRODUCT_RELATED_PRODUCT_CATEGORY('HR32-32-01','HR32-32-01',(#629));
#624=APPLICATION_PROTOCOL_DEFINITION('international standard',
'automotive_design',2009,#625);
#625=APPLICATION_CONTEXT(
'Core Data for Automotive Mechanical Design Process');
#626=PRODUCT_CONTEXT('part definition',#625,'mechanical');
#627=PRODUCT('HR32-32','HR32-32',$,(#626));
#628=PRODUCT('rondella_cerniera','rondella_cerniera',$,(#626));
#629=PRODUCT('HR32-32-01','HR32-32-01','STEP AP203',(#626));
ENDSEC;
END-ISO-10303-21;
