ISO-10303-21;
HEADER;
/* Generated by software containing ST-Developer
 * from STEP Tools, Inc. (www.steptools.com) 
 */

FILE_DESCRIPTION(
/* description */ ('STEP AP203'),
/* implementation_level */ '2;1');

FILE_NAME(
/* name */ 
'C:\\Users\\Stefan.Nesic\\Desktop\\01010STEP\\000Verifica\\CORRETTI\\G
A08-90.stp',
/* time_stamp */ '2022-07-11T15:55:24+02:00',
/* author */ (''),
/* organization */ (''),
/* preprocessor_version */ 'ST-DEVELOPER v18.1',
/* originating_system */ 'Autodesk Inventor 2021',
/* authorisation */ '');

FILE_SCHEMA (('AUTOMOTIVE_DESIGN { 1 0 10303 214 3 1 1 }'));
ENDSEC;

DATA;
#10=MECHANICAL_DESIGN_GEOMETRIC_PRESENTATION_REPRESENTATION('',(#13),#411);
#11=SHAPE_REPRESENTATION_RELATIONSHIP('SRR','None',#418,#12);
#12=ADVANCED_BREP_SHAPE_REPRESENTATION('',(#14),#410);
#13=STYLED_ITEM('',(#427),#14);
#14=MANIFOLD_SOLID_BREP('Solido1',#241);
#15=FACE_BOUND('',#54,.T.);
#16=FACE_BOUND('',#55,.T.);
#17=FACE_BOUND('',#56,.T.);
#18=FACE_BOUND('',#57,.T.);
#19=FACE_BOUND('',#59,.T.);
#20=FACE_BOUND('',#60,.T.);
#21=FACE_BOUND('',#61,.T.);
#22=FACE_BOUND('',#62,.T.);
#23=PLANE('',#273);
#24=PLANE('',#274);
#25=PLANE('',#275);
#26=PLANE('',#276);
#27=PLANE('',#277);
#28=PLANE('',#278);
#29=PLANE('',#279);
#30=PLANE('',#280);
#31=FACE_OUTER_BOUND('',#43,.T.);
#32=FACE_OUTER_BOUND('',#44,.T.);
#33=FACE_OUTER_BOUND('',#45,.T.);
#34=FACE_OUTER_BOUND('',#46,.T.);
#35=FACE_OUTER_BOUND('',#47,.T.);
#36=FACE_OUTER_BOUND('',#48,.T.);
#37=FACE_OUTER_BOUND('',#49,.T.);
#38=FACE_OUTER_BOUND('',#50,.T.);
#39=FACE_OUTER_BOUND('',#51,.T.);
#40=FACE_OUTER_BOUND('',#52,.T.);
#41=FACE_OUTER_BOUND('',#53,.T.);
#42=FACE_OUTER_BOUND('',#58,.T.);
#43=EDGE_LOOP('',(#165,#166,#167,#168));
#44=EDGE_LOOP('',(#169,#170,#171,#172));
#45=EDGE_LOOP('',(#173,#174,#175,#176));
#46=EDGE_LOOP('',(#177,#178,#179,#180));
#47=EDGE_LOOP('',(#181,#182,#183,#184));
#48=EDGE_LOOP('',(#185,#186,#187,#188));
#49=EDGE_LOOP('',(#189,#190,#191,#192));
#50=EDGE_LOOP('',(#193,#194,#195,#196));
#51=EDGE_LOOP('',(#197,#198,#199,#200));
#52=EDGE_LOOP('',(#201,#202,#203,#204));
#53=EDGE_LOOP('',(#205,#206,#207,#208,#209,#210));
#54=EDGE_LOOP('',(#211));
#55=EDGE_LOOP('',(#212));
#56=EDGE_LOOP('',(#213));
#57=EDGE_LOOP('',(#214));
#58=EDGE_LOOP('',(#215,#216,#217,#218,#219,#220));
#59=EDGE_LOOP('',(#221));
#60=EDGE_LOOP('',(#222));
#61=EDGE_LOOP('',(#223));
#62=EDGE_LOOP('',(#224));
#63=LINE('',#350,#85);
#64=LINE('',#356,#86);
#65=LINE('',#362,#87);
#66=LINE('',#368,#88);
#67=LINE('',#373,#89);
#68=LINE('',#375,#90);
#69=LINE('',#377,#91);
#70=LINE('',#378,#92);
#71=LINE('',#381,#93);
#72=LINE('',#383,#94);
#73=LINE('',#384,#95);
#74=LINE('',#387,#96);
#75=LINE('',#389,#97);
#76=LINE('',#390,#98);
#77=LINE('',#393,#99);
#78=LINE('',#395,#100);
#79=LINE('',#396,#101);
#80=LINE('',#399,#102);
#81=LINE('',#401,#103);
#82=LINE('',#402,#104);
#83=LINE('',#404,#105);
#84=LINE('',#405,#106);
#85=VECTOR('',#287,3.39999999999999);
#86=VECTOR('',#294,3.39999999999999);
#87=VECTOR('',#301,3.39999999999999);
#88=VECTOR('',#308,3.39999999999999);
#89=VECTOR('',#313,1000.);
#90=VECTOR('',#314,1000.);
#91=VECTOR('',#315,1000.);
#92=VECTOR('',#316,1000.);
#93=VECTOR('',#319,1000.);
#94=VECTOR('',#320,1000.);
#95=VECTOR('',#321,1000.);
#96=VECTOR('',#324,1000.);
#97=VECTOR('',#325,1000.);
#98=VECTOR('',#326,1000.);
#99=VECTOR('',#329,1000.);
#100=VECTOR('',#330,1000.);
#101=VECTOR('',#331,1000.);
#102=VECTOR('',#334,1000.);
#103=VECTOR('',#335,1000.);
#104=VECTOR('',#336,1000.);
#105=VECTOR('',#339,1000.);
#106=VECTOR('',#340,1000.);
#107=CIRCLE('',#262,3.4);
#108=CIRCLE('',#263,3.39999999999999);
#109=CIRCLE('',#265,3.4);
#110=CIRCLE('',#266,3.39999999999999);
#111=CIRCLE('',#268,3.4);
#112=CIRCLE('',#269,3.39999999999999);
#113=CIRCLE('',#271,3.4);
#114=CIRCLE('',#272,3.39999999999999);
#115=VERTEX_POINT('',#347);
#116=VERTEX_POINT('',#349);
#117=VERTEX_POINT('',#353);
#118=VERTEX_POINT('',#355);
#119=VERTEX_POINT('',#359);
#120=VERTEX_POINT('',#361);
#121=VERTEX_POINT('',#365);
#122=VERTEX_POINT('',#367);
#123=VERTEX_POINT('',#371);
#124=VERTEX_POINT('',#372);
#125=VERTEX_POINT('',#374);
#126=VERTEX_POINT('',#376);
#127=VERTEX_POINT('',#380);
#128=VERTEX_POINT('',#382);
#129=VERTEX_POINT('',#386);
#130=VERTEX_POINT('',#388);
#131=VERTEX_POINT('',#392);
#132=VERTEX_POINT('',#394);
#133=VERTEX_POINT('',#398);
#134=VERTEX_POINT('',#400);
#135=EDGE_CURVE('',#115,#115,#107,.T.);
#136=EDGE_CURVE('',#115,#116,#63,.T.);
#137=EDGE_CURVE('',#116,#116,#108,.T.);
#138=EDGE_CURVE('',#117,#117,#109,.T.);
#139=EDGE_CURVE('',#117,#118,#64,.T.);
#140=EDGE_CURVE('',#118,#118,#110,.T.);
#141=EDGE_CURVE('',#119,#119,#111,.T.);
#142=EDGE_CURVE('',#119,#120,#65,.T.);
#143=EDGE_CURVE('',#120,#120,#112,.T.);
#144=EDGE_CURVE('',#121,#121,#113,.T.);
#145=EDGE_CURVE('',#121,#122,#66,.T.);
#146=EDGE_CURVE('',#122,#122,#114,.T.);
#147=EDGE_CURVE('',#123,#124,#67,.T.);
#148=EDGE_CURVE('',#125,#124,#68,.T.);
#149=EDGE_CURVE('',#126,#125,#69,.T.);
#150=EDGE_CURVE('',#126,#123,#70,.T.);
#151=EDGE_CURVE('',#124,#127,#71,.T.);
#152=EDGE_CURVE('',#128,#127,#72,.T.);
#153=EDGE_CURVE('',#125,#128,#73,.T.);
#154=EDGE_CURVE('',#127,#129,#74,.T.);
#155=EDGE_CURVE('',#130,#129,#75,.T.);
#156=EDGE_CURVE('',#128,#130,#76,.T.);
#157=EDGE_CURVE('',#129,#131,#77,.T.);
#158=EDGE_CURVE('',#132,#131,#78,.T.);
#159=EDGE_CURVE('',#130,#132,#79,.T.);
#160=EDGE_CURVE('',#131,#133,#80,.T.);
#161=EDGE_CURVE('',#134,#133,#81,.T.);
#162=EDGE_CURVE('',#132,#134,#82,.T.);
#163=EDGE_CURVE('',#133,#123,#83,.T.);
#164=EDGE_CURVE('',#134,#126,#84,.T.);
#165=ORIENTED_EDGE('',*,*,#135,.F.);
#166=ORIENTED_EDGE('',*,*,#136,.T.);
#167=ORIENTED_EDGE('',*,*,#137,.T.);
#168=ORIENTED_EDGE('',*,*,#136,.F.);
#169=ORIENTED_EDGE('',*,*,#138,.F.);
#170=ORIENTED_EDGE('',*,*,#139,.T.);
#171=ORIENTED_EDGE('',*,*,#140,.T.);
#172=ORIENTED_EDGE('',*,*,#139,.F.);
#173=ORIENTED_EDGE('',*,*,#141,.F.);
#174=ORIENTED_EDGE('',*,*,#142,.T.);
#175=ORIENTED_EDGE('',*,*,#143,.T.);
#176=ORIENTED_EDGE('',*,*,#142,.F.);
#177=ORIENTED_EDGE('',*,*,#144,.F.);
#178=ORIENTED_EDGE('',*,*,#145,.T.);
#179=ORIENTED_EDGE('',*,*,#146,.T.);
#180=ORIENTED_EDGE('',*,*,#145,.F.);
#181=ORIENTED_EDGE('',*,*,#147,.T.);
#182=ORIENTED_EDGE('',*,*,#148,.F.);
#183=ORIENTED_EDGE('',*,*,#149,.F.);
#184=ORIENTED_EDGE('',*,*,#150,.T.);
#185=ORIENTED_EDGE('',*,*,#151,.T.);
#186=ORIENTED_EDGE('',*,*,#152,.F.);
#187=ORIENTED_EDGE('',*,*,#153,.F.);
#188=ORIENTED_EDGE('',*,*,#148,.T.);
#189=ORIENTED_EDGE('',*,*,#154,.T.);
#190=ORIENTED_EDGE('',*,*,#155,.F.);
#191=ORIENTED_EDGE('',*,*,#156,.F.);
#192=ORIENTED_EDGE('',*,*,#152,.T.);
#193=ORIENTED_EDGE('',*,*,#157,.T.);
#194=ORIENTED_EDGE('',*,*,#158,.F.);
#195=ORIENTED_EDGE('',*,*,#159,.F.);
#196=ORIENTED_EDGE('',*,*,#155,.T.);
#197=ORIENTED_EDGE('',*,*,#160,.T.);
#198=ORIENTED_EDGE('',*,*,#161,.F.);
#199=ORIENTED_EDGE('',*,*,#162,.F.);
#200=ORIENTED_EDGE('',*,*,#158,.T.);
#201=ORIENTED_EDGE('',*,*,#163,.T.);
#202=ORIENTED_EDGE('',*,*,#150,.F.);
#203=ORIENTED_EDGE('',*,*,#164,.F.);
#204=ORIENTED_EDGE('',*,*,#161,.T.);
#205=ORIENTED_EDGE('',*,*,#149,.T.);
#206=ORIENTED_EDGE('',*,*,#153,.T.);
#207=ORIENTED_EDGE('',*,*,#156,.T.);
#208=ORIENTED_EDGE('',*,*,#159,.T.);
#209=ORIENTED_EDGE('',*,*,#162,.T.);
#210=ORIENTED_EDGE('',*,*,#164,.T.);
#211=ORIENTED_EDGE('',*,*,#137,.F.);
#212=ORIENTED_EDGE('',*,*,#140,.F.);
#213=ORIENTED_EDGE('',*,*,#143,.F.);
#214=ORIENTED_EDGE('',*,*,#146,.F.);
#215=ORIENTED_EDGE('',*,*,#147,.F.);
#216=ORIENTED_EDGE('',*,*,#163,.F.);
#217=ORIENTED_EDGE('',*,*,#160,.F.);
#218=ORIENTED_EDGE('',*,*,#157,.F.);
#219=ORIENTED_EDGE('',*,*,#154,.F.);
#220=ORIENTED_EDGE('',*,*,#151,.F.);
#221=ORIENTED_EDGE('',*,*,#135,.T.);
#222=ORIENTED_EDGE('',*,*,#138,.T.);
#223=ORIENTED_EDGE('',*,*,#141,.T.);
#224=ORIENTED_EDGE('',*,*,#144,.T.);
#225=CYLINDRICAL_SURFACE('',#261,3.39999999999999);
#226=CYLINDRICAL_SURFACE('',#264,3.39999999999999);
#227=CYLINDRICAL_SURFACE('',#267,3.39999999999999);
#228=CYLINDRICAL_SURFACE('',#270,3.39999999999999);
#229=ADVANCED_FACE('',(#31),#225,.F.);
#230=ADVANCED_FACE('',(#32),#226,.F.);
#231=ADVANCED_FACE('',(#33),#227,.F.);
#232=ADVANCED_FACE('',(#34),#228,.F.);
#233=ADVANCED_FACE('',(#35),#23,.F.);
#234=ADVANCED_FACE('',(#36),#24,.F.);
#235=ADVANCED_FACE('',(#37),#25,.F.);
#236=ADVANCED_FACE('',(#38),#26,.F.);
#237=ADVANCED_FACE('',(#39),#27,.F.);
#238=ADVANCED_FACE('',(#40),#28,.F.);
#239=ADVANCED_FACE('',(#41,#15,#16,#17,#18),#29,.T.);
#240=ADVANCED_FACE('',(#42,#19,#20,#21,#22),#30,.F.);
#241=CLOSED_SHELL('',(#229,#230,#231,#232,#233,#234,#235,#236,#237,#238,
#239,#240));
#242=DERIVED_UNIT_ELEMENT(#244,1.);
#243=DERIVED_UNIT_ELEMENT(#413,-3.);
#244=(
MASS_UNIT()
NAMED_UNIT(*)
SI_UNIT($,.GRAM.)
);
#245=DERIVED_UNIT((#242,#243));
#246=MEASURE_REPRESENTATION_ITEM('density measure',
POSITIVE_RATIO_MEASURE(1.),#245);
#247=PROPERTY_DEFINITION_REPRESENTATION(#252,#249);
#248=PROPERTY_DEFINITION_REPRESENTATION(#253,#250);
#249=REPRESENTATION('material name',(#251),#410);
#250=REPRESENTATION('density',(#246),#410);
#251=DESCRIPTIVE_REPRESENTATION_ITEM('Generico','Generico');
#252=PROPERTY_DEFINITION('material property','material name',#420);
#253=PROPERTY_DEFINITION('material property','density of part',#420);
#254=DATE_TIME_ROLE('creation_date');
#255=APPLIED_DATE_AND_TIME_ASSIGNMENT(#256,#254,(#420));
#256=DATE_AND_TIME(#257,#258);
#257=CALENDAR_DATE(2013,25,1);
#258=LOCAL_TIME(10,6,29.,#259);
#259=COORDINATED_UNIVERSAL_TIME_OFFSET(0,0,.BEHIND.);
#260=AXIS2_PLACEMENT_3D('placement',#345,#281,#282);
#261=AXIS2_PLACEMENT_3D('',#346,#283,#284);
#262=AXIS2_PLACEMENT_3D('',#348,#285,#286);
#263=AXIS2_PLACEMENT_3D('',#351,#288,#289);
#264=AXIS2_PLACEMENT_3D('',#352,#290,#291);
#265=AXIS2_PLACEMENT_3D('',#354,#292,#293);
#266=AXIS2_PLACEMENT_3D('',#357,#295,#296);
#267=AXIS2_PLACEMENT_3D('',#358,#297,#298);
#268=AXIS2_PLACEMENT_3D('',#360,#299,#300);
#269=AXIS2_PLACEMENT_3D('',#363,#302,#303);
#270=AXIS2_PLACEMENT_3D('',#364,#304,#305);
#271=AXIS2_PLACEMENT_3D('',#366,#306,#307);
#272=AXIS2_PLACEMENT_3D('',#369,#309,#310);
#273=AXIS2_PLACEMENT_3D('',#370,#311,#312);
#274=AXIS2_PLACEMENT_3D('',#379,#317,#318);
#275=AXIS2_PLACEMENT_3D('',#385,#322,#323);
#276=AXIS2_PLACEMENT_3D('',#391,#327,#328);
#277=AXIS2_PLACEMENT_3D('',#397,#332,#333);
#278=AXIS2_PLACEMENT_3D('',#403,#337,#338);
#279=AXIS2_PLACEMENT_3D('',#406,#341,#342);
#280=AXIS2_PLACEMENT_3D('',#407,#343,#344);
#281=DIRECTION('axis',(0.,0.,1.));
#282=DIRECTION('refdir',(1.,0.,0.));
#283=DIRECTION('center_axis',(0.,1.,0.));
#284=DIRECTION('ref_axis',(0.,0.,1.));
#285=DIRECTION('center_axis',(0.,1.,0.));
#286=DIRECTION('ref_axis',(0.,0.,1.));
#287=DIRECTION('',(0.,1.,0.));
#288=DIRECTION('center_axis',(0.,1.,0.));
#289=DIRECTION('ref_axis',(0.,0.,1.));
#290=DIRECTION('center_axis',(0.,1.,0.));
#291=DIRECTION('ref_axis',(0.,0.,1.));
#292=DIRECTION('center_axis',(0.,1.,0.));
#293=DIRECTION('ref_axis',(0.,0.,1.));
#294=DIRECTION('',(0.,1.,0.));
#295=DIRECTION('center_axis',(0.,1.,0.));
#296=DIRECTION('ref_axis',(0.,0.,1.));
#297=DIRECTION('center_axis',(0.,1.,0.));
#298=DIRECTION('ref_axis',(0.,0.,1.));
#299=DIRECTION('center_axis',(0.,1.,0.));
#300=DIRECTION('ref_axis',(0.,0.,1.));
#301=DIRECTION('',(0.,1.,0.));
#302=DIRECTION('center_axis',(0.,1.,0.));
#303=DIRECTION('ref_axis',(0.,0.,1.));
#304=DIRECTION('center_axis',(0.,1.,0.));
#305=DIRECTION('ref_axis',(0.,0.,1.));
#306=DIRECTION('center_axis',(0.,1.,0.));
#307=DIRECTION('ref_axis',(0.,0.,1.));
#308=DIRECTION('',(0.,1.,0.));
#309=DIRECTION('center_axis',(0.,1.,0.));
#310=DIRECTION('ref_axis',(0.,0.,1.));
#311=DIRECTION('center_axis',(-1.,0.,3.9235281690253E-15));
#312=DIRECTION('ref_axis',(3.9235281690253E-15,0.,1.));
#313=DIRECTION('',(-3.9235281690253E-15,0.,-1.));
#314=DIRECTION('',(0.,-1.,0.));
#315=DIRECTION('',(-3.9235281690253E-15,0.,-1.));
#316=DIRECTION('',(0.,-1.,0.));
#317=DIRECTION('center_axis',(5.13992141030165E-15,0.,1.));
#318=DIRECTION('ref_axis',(1.,0.,-5.13992141030165E-15));
#319=DIRECTION('',(-1.,0.,5.13992141030165E-15));
#320=DIRECTION('',(0.,-1.,0.));
#321=DIRECTION('',(-1.,0.,5.13992141030165E-15));
#322=DIRECTION('center_axis',(1.,0.,-4.1774973503115E-15));
#323=DIRECTION('ref_axis',(-4.1774973503115E-15,0.,-1.));
#324=DIRECTION('',(4.1774973503115E-15,0.,1.));
#325=DIRECTION('',(0.,-1.,0.));
#326=DIRECTION('',(4.1774973503115E-15,0.,1.));
#327=DIRECTION('center_axis',(0.,0.,1.));
#328=DIRECTION('ref_axis',(1.,0.,0.));
#329=DIRECTION('',(-1.,0.,0.));
#330=DIRECTION('',(0.,-1.,0.));
#331=DIRECTION('',(-1.,0.,0.));
#332=DIRECTION('center_axis',(1.,0.,0.));
#333=DIRECTION('ref_axis',(0.,0.,-1.));
#334=DIRECTION('',(0.,0.,1.));
#335=DIRECTION('',(0.,-1.,0.));
#336=DIRECTION('',(0.,0.,1.));
#337=DIRECTION('center_axis',(-1.22460635382238E-16,0.,-1.));
#338=DIRECTION('ref_axis',(-1.,0.,1.22460635382238E-16));
#339=DIRECTION('',(1.,0.,-1.22460635382238E-16));
#340=DIRECTION('',(1.,0.,-1.22460635382238E-16));
#341=DIRECTION('center_axis',(0.,1.,0.));
#342=DIRECTION('ref_axis',(0.,0.,1.));
#343=DIRECTION('center_axis',(0.,1.,0.));
#344=DIRECTION('ref_axis',(0.,0.,1.));
#345=CARTESIAN_POINT('',(0.,0.,0.));
#346=CARTESIAN_POINT('Origin',(-50.,6.,-6.74999999999999));
#347=CARTESIAN_POINT('',(-50.,0.,-10.15));
#348=CARTESIAN_POINT('Origin',(-50.,0.,-6.74999999999999));
#349=CARTESIAN_POINT('',(-50.,6.,-10.15));
#350=CARTESIAN_POINT('',(-50.,6.,-10.15));
#351=CARTESIAN_POINT('Origin',(-50.,6.,-6.74999999999999));
#352=CARTESIAN_POINT('Origin',(-25.,6.,-6.75));
#353=CARTESIAN_POINT('',(-25.,0.,-10.15));
#354=CARTESIAN_POINT('Origin',(-25.,0.,-6.75));
#355=CARTESIAN_POINT('',(-25.,6.,-10.15));
#356=CARTESIAN_POINT('',(-25.,6.,-10.15));
#357=CARTESIAN_POINT('Origin',(-25.,6.,-6.75));
#358=CARTESIAN_POINT('Origin',(-6.75000000000023,6.,-25.));
#359=CARTESIAN_POINT('',(-6.75000000000023,0.,-28.4));
#360=CARTESIAN_POINT('Origin',(-6.75000000000023,0.,-25.));
#361=CARTESIAN_POINT('',(-6.75000000000023,6.,-28.4));
#362=CARTESIAN_POINT('',(-6.75000000000023,6.,-28.4));
#363=CARTESIAN_POINT('Origin',(-6.75000000000023,6.,-25.));
#364=CARTESIAN_POINT('Origin',(-6.75000000000024,6.,-50.));
#365=CARTESIAN_POINT('',(-6.75000000000024,0.,-53.4));
#366=CARTESIAN_POINT('Origin',(-6.75000000000024,0.,-50.));
#367=CARTESIAN_POINT('',(-6.75000000000024,6.,-53.4));
#368=CARTESIAN_POINT('',(-6.75000000000024,6.,-53.4));
#369=CARTESIAN_POINT('Origin',(-6.75000000000024,6.,-50.));
#370=CARTESIAN_POINT('Origin',(-2.45220510564081E-13,6.,-62.5));
#371=CARTESIAN_POINT('',(0.,0.,0.));
#372=CARTESIAN_POINT('',(-2.45220510564081E-13,0.,-62.5));
#373=CARTESIAN_POINT('',(-2.45220510564081E-13,0.,-62.5));
#374=CARTESIAN_POINT('',(-2.45220510564081E-13,6.,-62.5));
#375=CARTESIAN_POINT('',(-2.45220510564081E-13,6.,-62.5));
#376=CARTESIAN_POINT('',(0.,6.,0.));
#377=CARTESIAN_POINT('',(-2.45220510564081E-13,6.,-62.5));
#378=CARTESIAN_POINT('',(0.,6.,0.));
#379=CARTESIAN_POINT('Origin',(-13.5000000000002,6.,-62.4999999999999));
#380=CARTESIAN_POINT('',(-13.5000000000002,0.,-62.4999999999999));
#381=CARTESIAN_POINT('',(-13.5000000000002,0.,-62.4999999999999));
#382=CARTESIAN_POINT('',(-13.5000000000002,6.,-62.4999999999999));
#383=CARTESIAN_POINT('',(-13.5000000000002,6.,-62.4999999999999));
#384=CARTESIAN_POINT('',(-13.5000000000002,6.,-62.4999999999999));
#385=CARTESIAN_POINT('Origin',(-13.5,6.,-13.5));
#386=CARTESIAN_POINT('',(-13.5,0.,-13.5));
#387=CARTESIAN_POINT('',(-13.5,0.,-13.5));
#388=CARTESIAN_POINT('',(-13.5,6.,-13.5));
#389=CARTESIAN_POINT('',(-13.5,6.,-13.5));
#390=CARTESIAN_POINT('',(-13.5,6.,-13.5));
#391=CARTESIAN_POINT('Origin',(-62.5,6.,-13.5));
#392=CARTESIAN_POINT('',(-62.5,0.,-13.5));
#393=CARTESIAN_POINT('',(-62.5,0.,-13.5));
#394=CARTESIAN_POINT('',(-62.5,6.,-13.5));
#395=CARTESIAN_POINT('',(-62.5,6.,-13.5));
#396=CARTESIAN_POINT('',(-62.5,6.,-13.5));
#397=CARTESIAN_POINT('Origin',(-62.5,6.,7.65378971138986E-15));
#398=CARTESIAN_POINT('',(-62.5,0.,7.65378971138986E-15));
#399=CARTESIAN_POINT('',(-62.5,0.,7.65378971138986E-15));
#400=CARTESIAN_POINT('',(-62.5,6.,7.65378971138986E-15));
#401=CARTESIAN_POINT('',(-62.5,6.,7.65378971138986E-15));
#402=CARTESIAN_POINT('',(-62.5,6.,7.65378971138986E-15));
#403=CARTESIAN_POINT('Origin',(0.,6.,0.));
#404=CARTESIAN_POINT('',(0.,0.,0.));
#405=CARTESIAN_POINT('',(0.,6.,0.));
#406=CARTESIAN_POINT('Origin',(-2.4459601011273E-13,6.,-62.5));
#407=CARTESIAN_POINT('Origin',(-2.4459601011273E-13,0.,-62.5));
#408=UNCERTAINTY_MEASURE_WITH_UNIT(LENGTH_MEASURE(0.01),#412,
'DISTANCE_ACCURACY_VALUE',
'Maximum model space distance between geometric entities at asserted c
onnectivities');
#409=UNCERTAINTY_MEASURE_WITH_UNIT(LENGTH_MEASURE(0.01),#412,
'DISTANCE_ACCURACY_VALUE',
'Maximum model space distance between geometric entities at asserted c
onnectivities');
#410=(
GEOMETRIC_REPRESENTATION_CONTEXT(3)
GLOBAL_UNCERTAINTY_ASSIGNED_CONTEXT((#408))
GLOBAL_UNIT_ASSIGNED_CONTEXT((#412,#414,#415))
REPRESENTATION_CONTEXT('','3D')
);
#411=(
GEOMETRIC_REPRESENTATION_CONTEXT(3)
GLOBAL_UNCERTAINTY_ASSIGNED_CONTEXT((#409))
GLOBAL_UNIT_ASSIGNED_CONTEXT((#412,#414,#415))
REPRESENTATION_CONTEXT('','3D')
);
#412=(
LENGTH_UNIT()
NAMED_UNIT(*)
SI_UNIT(.MILLI.,.METRE.)
);
#413=(
LENGTH_UNIT()
NAMED_UNIT(*)
SI_UNIT(.CENTI.,.METRE.)
);
#414=(
NAMED_UNIT(*)
PLANE_ANGLE_UNIT()
SI_UNIT($,.RADIAN.)
);
#415=(
NAMED_UNIT(*)
SI_UNIT($,.STERADIAN.)
SOLID_ANGLE_UNIT()
);
#416=SHAPE_DEFINITION_REPRESENTATION(#417,#418);
#417=PRODUCT_DEFINITION_SHAPE('',$,#420);
#418=SHAPE_REPRESENTATION('',(#260),#410);
#419=PRODUCT_DEFINITION_CONTEXT('part definition',#424,'design');
#420=PRODUCT_DEFINITION('GA08-90','GA08-90',#421,#419);
#421=PRODUCT_DEFINITION_FORMATION('TUTTO',$,#426);
#422=PRODUCT_RELATED_PRODUCT_CATEGORY('GA08-90','GA08-90',(#426));
#423=APPLICATION_PROTOCOL_DEFINITION('international standard',
'automotive_design',2009,#424);
#424=APPLICATION_CONTEXT(
'Core Data for Automotive Mechanical Design Process');
#425=PRODUCT_CONTEXT('part definition',#424,'mechanical');
#426=PRODUCT('GA08-90','GA08-90','STEP AP203',(#425));
#427=PRESENTATION_STYLE_ASSIGNMENT((#428));
#428=SURFACE_STYLE_USAGE(.BOTH.,#431);
#429=SURFACE_STYLE_RENDERING_WITH_PROPERTIES($,#435,(#430));
#430=SURFACE_STYLE_TRANSPARENT(0.);
#431=SURFACE_SIDE_STYLE('',(#432,#429));
#432=SURFACE_STYLE_FILL_AREA(#433);
#433=FILL_AREA_STYLE('',(#434));
#434=FILL_AREA_STYLE_COLOUR('',#435);
#435=COLOUR_RGB('',0.749019607843137,0.749019607843137,0.749019607843137);
ENDSEC;
END-ISO-10303-21;
