ISO-10303-21;
HEADER;
/* Generated by software containing ST-Developer
 * from STEP Tools, Inc. (www.steptools.com) 
 */

FILE_DESCRIPTION(
/* description */ ('Piastrina per magnete A67-50'),
/* implementation_level */ '2;1');

FILE_NAME(
/* name */ 'C:\\Users\\Stefan.Nesic\\Desktop\\01010STEP\\DMU18P.stp',
/* time_stamp */ '2022-06-17T14:55:39+02:00',
/* author */ ('Daniele'),
/* organization */ (''),
/* preprocessor_version */ 'ST-DEVELOPER v18.1',
/* originating_system */ 'Autodesk Inventor 2021',
/* authorisation */ '');

FILE_SCHEMA (('AUTOMOTIVE_DESIGN { 1 0 10303 214 3 1 1 }'));
ENDSEC;

DATA;
#10=MECHANICAL_DESIGN_GEOMETRIC_PRESENTATION_REPRESENTATION('',(#13),#181);
#11=SHAPE_REPRESENTATION_RELATIONSHIP('SRR','None',#188,#12);
#12=ADVANCED_BREP_SHAPE_REPRESENTATION('',(#14),#180);
#13=STYLED_ITEM('',(#197),#14);
#14=MANIFOLD_SOLID_BREP('Solido1',#93);
#15=FACE_BOUND('',#32,.T.);
#16=FACE_BOUND('',#34,.T.);
#17=PLANE('',#123);
#18=PLANE('',#124);
#19=CYLINDRICAL_SURFACE('',#116,2.25);
#20=CYLINDRICAL_SURFACE('',#121,9.);
#21=FACE_OUTER_BOUND('',#27,.T.);
#22=FACE_OUTER_BOUND('',#28,.T.);
#23=FACE_OUTER_BOUND('',#29,.T.);
#24=FACE_OUTER_BOUND('',#30,.T.);
#25=FACE_OUTER_BOUND('',#31,.T.);
#26=FACE_OUTER_BOUND('',#33,.T.);
#27=EDGE_LOOP('',(#65,#66,#67,#68));
#28=EDGE_LOOP('',(#69,#70,#71,#72));
#29=EDGE_LOOP('',(#73,#74,#75,#76));
#30=EDGE_LOOP('',(#77,#78,#79,#80));
#31=EDGE_LOOP('',(#81));
#32=EDGE_LOOP('',(#82));
#33=EDGE_LOOP('',(#83));
#34=EDGE_LOOP('',(#84));
#35=LINE('',#160,#39);
#36=LINE('',#164,#40);
#37=LINE('',#170,#41);
#38=LINE('',#174,#42);
#39=VECTOR('',#131,3.475);
#40=VECTOR('',#136,2.25);
#41=VECTOR('',#143,8.75);
#42=VECTOR('',#148,9.);
#43=CIRCLE('',#114,4.7);
#44=CIRCLE('',#115,2.25);
#45=CIRCLE('',#117,2.25);
#46=CIRCLE('',#119,8.5);
#47=CIRCLE('',#120,9.);
#48=CIRCLE('',#122,9.);
#49=VERTEX_POINT('',#157);
#50=VERTEX_POINT('',#159);
#51=VERTEX_POINT('',#163);
#52=VERTEX_POINT('',#167);
#53=VERTEX_POINT('',#169);
#54=VERTEX_POINT('',#173);
#55=EDGE_CURVE('',#49,#49,#43,.T.);
#56=EDGE_CURVE('',#49,#50,#35,.T.);
#57=EDGE_CURVE('',#50,#50,#44,.T.);
#58=EDGE_CURVE('',#50,#51,#36,.T.);
#59=EDGE_CURVE('',#51,#51,#45,.T.);
#60=EDGE_CURVE('',#52,#52,#46,.T.);
#61=EDGE_CURVE('',#52,#53,#37,.T.);
#62=EDGE_CURVE('',#53,#53,#47,.T.);
#63=EDGE_CURVE('',#53,#54,#38,.T.);
#64=EDGE_CURVE('',#54,#54,#48,.T.);
#65=ORIENTED_EDGE('',*,*,#55,.F.);
#66=ORIENTED_EDGE('',*,*,#56,.T.);
#67=ORIENTED_EDGE('',*,*,#57,.F.);
#68=ORIENTED_EDGE('',*,*,#56,.F.);
#69=ORIENTED_EDGE('',*,*,#57,.T.);
#70=ORIENTED_EDGE('',*,*,#58,.T.);
#71=ORIENTED_EDGE('',*,*,#59,.F.);
#72=ORIENTED_EDGE('',*,*,#58,.F.);
#73=ORIENTED_EDGE('',*,*,#60,.T.);
#74=ORIENTED_EDGE('',*,*,#61,.T.);
#75=ORIENTED_EDGE('',*,*,#62,.T.);
#76=ORIENTED_EDGE('',*,*,#61,.F.);
#77=ORIENTED_EDGE('',*,*,#62,.F.);
#78=ORIENTED_EDGE('',*,*,#63,.T.);
#79=ORIENTED_EDGE('',*,*,#64,.F.);
#80=ORIENTED_EDGE('',*,*,#63,.F.);
#81=ORIENTED_EDGE('',*,*,#60,.F.);
#82=ORIENTED_EDGE('',*,*,#55,.T.);
#83=ORIENTED_EDGE('',*,*,#64,.T.);
#84=ORIENTED_EDGE('',*,*,#59,.T.);
#85=CONICAL_SURFACE('',#113,3.475,0.785398163397448);
#86=CONICAL_SURFACE('',#118,8.75,0.785398163397449);
#87=ADVANCED_FACE('',(#21),#85,.F.);
#88=ADVANCED_FACE('',(#22),#19,.F.);
#89=ADVANCED_FACE('',(#23),#86,.T.);
#90=ADVANCED_FACE('',(#24),#20,.T.);
#91=ADVANCED_FACE('',(#25,#15),#17,.T.);
#92=ADVANCED_FACE('',(#26,#16),#18,.F.);
#93=CLOSED_SHELL('',(#87,#88,#89,#90,#91,#92));
#94=DERIVED_UNIT_ELEMENT(#96,1.);
#95=DERIVED_UNIT_ELEMENT(#183,-3.);
#96=(
MASS_UNIT()
NAMED_UNIT(*)
SI_UNIT($,.GRAM.)
);
#97=DERIVED_UNIT((#94,#95));
#98=MEASURE_REPRESENTATION_ITEM('density measure',
POSITIVE_RATIO_MEASURE(7.1),#97);
#99=PROPERTY_DEFINITION_REPRESENTATION(#104,#101);
#100=PROPERTY_DEFINITION_REPRESENTATION(#105,#102);
#101=REPRESENTATION('material name',(#103),#180);
#102=REPRESENTATION('density',(#98),#180);
#103=DESCRIPTIVE_REPRESENTATION_ITEM('Ferro','Ferro');
#104=PROPERTY_DEFINITION('material property','material name',#190);
#105=PROPERTY_DEFINITION('material property','density of part',#190);
#106=DATE_TIME_ROLE('creation_date');
#107=APPLIED_DATE_AND_TIME_ASSIGNMENT(#108,#106,(#190));
#108=DATE_AND_TIME(#109,#110);
#109=CALENDAR_DATE(2020,24,1);
#110=LOCAL_TIME(0,0,0.,#111);
#111=COORDINATED_UNIVERSAL_TIME_OFFSET(0,0,.BEHIND.);
#112=AXIS2_PLACEMENT_3D('placement',#155,#125,#126);
#113=AXIS2_PLACEMENT_3D('',#156,#127,#128);
#114=AXIS2_PLACEMENT_3D('',#158,#129,#130);
#115=AXIS2_PLACEMENT_3D('',#161,#132,#133);
#116=AXIS2_PLACEMENT_3D('',#162,#134,#135);
#117=AXIS2_PLACEMENT_3D('',#165,#137,#138);
#118=AXIS2_PLACEMENT_3D('',#166,#139,#140);
#119=AXIS2_PLACEMENT_3D('',#168,#141,#142);
#120=AXIS2_PLACEMENT_3D('',#171,#144,#145);
#121=AXIS2_PLACEMENT_3D('',#172,#146,#147);
#122=AXIS2_PLACEMENT_3D('',#175,#149,#150);
#123=AXIS2_PLACEMENT_3D('',#176,#151,#152);
#124=AXIS2_PLACEMENT_3D('',#177,#153,#154);
#125=DIRECTION('axis',(0.,0.,1.));
#126=DIRECTION('refdir',(1.,0.,0.));
#127=DIRECTION('center_axis',(0.,1.,0.));
#128=DIRECTION('ref_axis',(1.,0.,0.));
#129=DIRECTION('center_axis',(0.,-1.,0.));
#130=DIRECTION('ref_axis',(1.,0.,0.));
#131=DIRECTION('',(0.707106781186547,-0.707106781186548,-8.65956056235493E-17));
#132=DIRECTION('center_axis',(0.,1.,0.));
#133=DIRECTION('ref_axis',(1.,0.,0.));
#134=DIRECTION('center_axis',(0.,1.,0.));
#135=DIRECTION('ref_axis',(1.,0.,0.));
#136=DIRECTION('',(0.,-1.,0.));
#137=DIRECTION('center_axis',(0.,1.,0.));
#138=DIRECTION('ref_axis',(1.,0.,0.));
#139=DIRECTION('center_axis',(0.,-1.,0.));
#140=DIRECTION('ref_axis',(1.,0.,0.));
#141=DIRECTION('center_axis',(0.,-1.,0.));
#142=DIRECTION('ref_axis',(1.,0.,0.));
#143=DIRECTION('',(-0.707106781186548,-0.707106781186547,8.65956056235494E-17));
#144=DIRECTION('center_axis',(0.,1.,0.));
#145=DIRECTION('ref_axis',(1.,0.,0.));
#146=DIRECTION('center_axis',(0.,1.,0.));
#147=DIRECTION('ref_axis',(1.,0.,0.));
#148=DIRECTION('',(0.,-1.,0.));
#149=DIRECTION('center_axis',(0.,-1.,0.));
#150=DIRECTION('ref_axis',(1.,0.,0.));
#151=DIRECTION('center_axis',(0.,1.,0.));
#152=DIRECTION('ref_axis',(0.,0.,1.));
#153=DIRECTION('center_axis',(0.,1.,0.));
#154=DIRECTION('ref_axis',(0.,0.,1.));
#155=CARTESIAN_POINT('',(0.,0.,0.));
#156=CARTESIAN_POINT('Origin',(0.,1.775,0.));
#157=CARTESIAN_POINT('',(-4.7,3.,5.75583995599256E-16));
#158=CARTESIAN_POINT('Origin',(0.,3.,0.));
#159=CARTESIAN_POINT('',(-2.25,0.549999999999999,2.75545529808154E-16));
#160=CARTESIAN_POINT('',(-3.475,1.775,4.25564762703705E-16));
#161=CARTESIAN_POINT('Origin',(0.,0.549999999999999,0.));
#162=CARTESIAN_POINT('Origin',(0.,-22.6320112359526,0.));
#163=CARTESIAN_POINT('',(-2.25,0.,2.75545529808154E-16));
#164=CARTESIAN_POINT('',(-2.25,-22.6320112359526,2.75545529808154E-16));
#165=CARTESIAN_POINT('Origin',(0.,0.,0.));
#166=CARTESIAN_POINT('Origin',(0.,2.75,0.));
#167=CARTESIAN_POINT('',(-8.5,3.,-1.04094977927525E-15));
#168=CARTESIAN_POINT('Origin',(0.,3.,0.));
#169=CARTESIAN_POINT('',(-9.,2.5,1.10218211923262E-15));
#170=CARTESIAN_POINT('',(-8.75,2.75,1.07156594925393E-15));
#171=CARTESIAN_POINT('Origin',(0.,2.5,0.));
#172=CARTESIAN_POINT('Origin',(0.,0.,0.));
#173=CARTESIAN_POINT('',(-9.,0.,1.10218211923262E-15));
#174=CARTESIAN_POINT('',(-9.,0.,1.10218211923262E-15));
#175=CARTESIAN_POINT('Origin',(0.,0.,0.));
#176=CARTESIAN_POINT('Origin',(9.14235935584316E-16,3.,2.05596856412066E-16));
#177=CARTESIAN_POINT('Origin',(9.14235935584316E-16,0.,2.05596856412066E-16));
#178=UNCERTAINTY_MEASURE_WITH_UNIT(LENGTH_MEASURE(0.01),#182,
'DISTANCE_ACCURACY_VALUE',
'Maximum model space distance between geometric entities at asserted c
onnectivities');
#179=UNCERTAINTY_MEASURE_WITH_UNIT(LENGTH_MEASURE(0.01),#182,
'DISTANCE_ACCURACY_VALUE',
'Maximum model space distance between geometric entities at asserted c
onnectivities');
#180=(
GEOMETRIC_REPRESENTATION_CONTEXT(3)
GLOBAL_UNCERTAINTY_ASSIGNED_CONTEXT((#178))
GLOBAL_UNIT_ASSIGNED_CONTEXT((#182,#184,#185))
REPRESENTATION_CONTEXT('','3D')
);
#181=(
GEOMETRIC_REPRESENTATION_CONTEXT(3)
GLOBAL_UNCERTAINTY_ASSIGNED_CONTEXT((#179))
GLOBAL_UNIT_ASSIGNED_CONTEXT((#182,#184,#185))
REPRESENTATION_CONTEXT('','3D')
);
#182=(
LENGTH_UNIT()
NAMED_UNIT(*)
SI_UNIT(.MILLI.,.METRE.)
);
#183=(
LENGTH_UNIT()
NAMED_UNIT(*)
SI_UNIT(.CENTI.,.METRE.)
);
#184=(
NAMED_UNIT(*)
PLANE_ANGLE_UNIT()
SI_UNIT($,.RADIAN.)
);
#185=(
NAMED_UNIT(*)
SI_UNIT($,.STERADIAN.)
SOLID_ANGLE_UNIT()
);
#186=SHAPE_DEFINITION_REPRESENTATION(#187,#188);
#187=PRODUCT_DEFINITION_SHAPE('',$,#190);
#188=SHAPE_REPRESENTATION('',(#112),#180);
#189=PRODUCT_DEFINITION_CONTEXT('part definition',#194,'design');
#190=PRODUCT_DEFINITION('DMU18P','DMU18P',#191,#189);
#191=PRODUCT_DEFINITION_FORMATION('A00',$,#196);
#192=PRODUCT_RELATED_PRODUCT_CATEGORY('DMU18P','DMU18P',(#196));
#193=APPLICATION_PROTOCOL_DEFINITION('international standard',
'automotive_design',2009,#194);
#194=APPLICATION_CONTEXT(
'Core Data for Automotive Mechanical Design Process');
#195=PRODUCT_CONTEXT('part definition',#194,'mechanical');
#196=PRODUCT('DMU18P','DMU18P','Piastrina per magnete A67-50',(#195));
#197=PRESENTATION_STYLE_ASSIGNMENT((#198));
#198=SURFACE_STYLE_USAGE(.BOTH.,#201);
#199=SURFACE_STYLE_RENDERING_WITH_PROPERTIES($,#205,(#200));
#200=SURFACE_STYLE_TRANSPARENT(0.);
#201=SURFACE_SIDE_STYLE('',(#202,#199));
#202=SURFACE_STYLE_FILL_AREA(#203);
#203=FILL_AREA_STYLE('',(#204));
#204=FILL_AREA_STYLE_COLOUR('',#205);
#205=COLOUR_RGB('',0.,0.,0.);
ENDSEC;
END-ISO-10303-21;
