ISO-10303-21;
HEADER;
/* Generated by software containing ST-Developer
 * from STEP Tools, Inc. (www.steptools.com) 
 */

FILE_DESCRIPTION(
/* description */ (
'Tappo acciaio inossidabile profilo canalina portacavi 80x200'),
/* implementation_level */ '2;1');

FILE_NAME(
/* name */ 'C:\\Users\\Stefan.Nesic\\Desktop\\01010STEP\\CE80-03.stp',
/* time_stamp */ '2022-06-17T14:55:46+02:00',
/* author */ ('Davide'),
/* organization */ (''),
/* preprocessor_version */ 'ST-DEVELOPER v18.1',
/* originating_system */ 'Autodesk Inventor 2021',
/* authorisation */ '');

FILE_SCHEMA (('AUTOMOTIVE_DESIGN { 1 0 10303 214 3 1 1 }'));
ENDSEC;

DATA;
#10=MECHANICAL_DESIGN_GEOMETRIC_PRESENTATION_REPRESENTATION('',(#13),#563);
#11=SHAPE_REPRESENTATION_RELATIONSHIP('SRR','None',#570,#12);
#12=ADVANCED_BREP_SHAPE_REPRESENTATION('',(#14),#562);
#13=STYLED_ITEM('',(#579),#14);
#14=MANIFOLD_SOLID_BREP('Solido1',#321);
#15=FACE_BOUND('',#56,.T.);
#16=FACE_BOUND('',#57,.T.);
#17=FACE_BOUND('',#58,.T.);
#18=FACE_BOUND('',#59,.T.);
#19=FACE_BOUND('',#60,.T.);
#20=FACE_BOUND('',#61,.T.);
#21=FACE_BOUND('',#71,.T.);
#22=FACE_BOUND('',#72,.T.);
#23=FACE_BOUND('',#73,.T.);
#24=FACE_BOUND('',#74,.T.);
#25=FACE_BOUND('',#75,.T.);
#26=FACE_BOUND('',#76,.T.);
#27=PLANE('',#359);
#28=PLANE('',#366);
#29=PLANE('',#369);
#30=PLANE('',#372);
#31=PLANE('',#375);
#32=PLANE('',#376);
#33=FACE_OUTER_BOUND('',#49,.T.);
#34=FACE_OUTER_BOUND('',#50,.T.);
#35=FACE_OUTER_BOUND('',#51,.T.);
#36=FACE_OUTER_BOUND('',#52,.T.);
#37=FACE_OUTER_BOUND('',#53,.T.);
#38=FACE_OUTER_BOUND('',#54,.T.);
#39=FACE_OUTER_BOUND('',#55,.T.);
#40=FACE_OUTER_BOUND('',#62,.T.);
#41=FACE_OUTER_BOUND('',#63,.T.);
#42=FACE_OUTER_BOUND('',#64,.T.);
#43=FACE_OUTER_BOUND('',#65,.T.);
#44=FACE_OUTER_BOUND('',#66,.T.);
#45=FACE_OUTER_BOUND('',#67,.T.);
#46=FACE_OUTER_BOUND('',#68,.T.);
#47=FACE_OUTER_BOUND('',#69,.T.);
#48=FACE_OUTER_BOUND('',#70,.T.);
#49=EDGE_LOOP('',(#211,#212,#213,#214));
#50=EDGE_LOOP('',(#215,#216,#217,#218));
#51=EDGE_LOOP('',(#219,#220,#221,#222));
#52=EDGE_LOOP('',(#223,#224,#225,#226));
#53=EDGE_LOOP('',(#227,#228,#229,#230));
#54=EDGE_LOOP('',(#231,#232,#233,#234));
#55=EDGE_LOOP('',(#235,#236,#237,#238,#239,#240,#241,#242));
#56=EDGE_LOOP('',(#243));
#57=EDGE_LOOP('',(#244));
#58=EDGE_LOOP('',(#245));
#59=EDGE_LOOP('',(#246));
#60=EDGE_LOOP('',(#247));
#61=EDGE_LOOP('',(#248));
#62=EDGE_LOOP('',(#249,#250,#251,#252));
#63=EDGE_LOOP('',(#253,#254,#255,#256));
#64=EDGE_LOOP('',(#257,#258,#259,#260));
#65=EDGE_LOOP('',(#261,#262,#263,#264));
#66=EDGE_LOOP('',(#265,#266,#267,#268));
#67=EDGE_LOOP('',(#269,#270,#271,#272));
#68=EDGE_LOOP('',(#273,#274,#275,#276));
#69=EDGE_LOOP('',(#277,#278,#279,#280));
#70=EDGE_LOOP('',(#281,#282,#283,#284,#285,#286,#287,#288));
#71=EDGE_LOOP('',(#289));
#72=EDGE_LOOP('',(#290));
#73=EDGE_LOOP('',(#291));
#74=EDGE_LOOP('',(#292));
#75=EDGE_LOOP('',(#293));
#76=EDGE_LOOP('',(#294));
#77=LINE('',#478,#99);
#78=LINE('',#484,#100);
#79=LINE('',#490,#101);
#80=LINE('',#496,#102);
#81=LINE('',#502,#103);
#82=LINE('',#508,#104);
#83=LINE('',#513,#105);
#84=LINE('',#517,#106);
#85=LINE('',#521,#107);
#86=LINE('',#525,#108);
#87=LINE('',#529,#109);
#88=LINE('',#532,#110);
#89=LINE('',#535,#111);
#90=LINE('',#536,#112);
#91=LINE('',#540,#113);
#92=LINE('',#543,#114);
#93=LINE('',#544,#115);
#94=LINE('',#548,#116);
#95=LINE('',#551,#117);
#96=LINE('',#552,#118);
#97=LINE('',#556,#119);
#98=LINE('',#558,#120);
#99=VECTOR('',#383,2.74999999999983);
#100=VECTOR('',#390,2.75000000000028);
#101=VECTOR('',#397,2.75000000000028);
#102=VECTOR('',#404,2.74999999999983);
#103=VECTOR('',#411,2.75000000000028);
#104=VECTOR('',#418,2.75000000000028);
#105=VECTOR('',#423,10.);
#106=VECTOR('',#426,10.);
#107=VECTOR('',#429,10.);
#108=VECTOR('',#432,10.);
#109=VECTOR('',#437,10.);
#110=VECTOR('',#440,10.);
#111=VECTOR('',#443,10.);
#112=VECTOR('',#444,10.);
#113=VECTOR('',#449,10.);
#114=VECTOR('',#452,10.);
#115=VECTOR('',#453,10.);
#116=VECTOR('',#458,10.);
#117=VECTOR('',#461,10.);
#118=VECTOR('',#462,10.);
#119=VECTOR('',#467,10.);
#120=VECTOR('',#470,10.);
#121=CIRCLE('',#342,2.74999999999983);
#122=CIRCLE('',#343,2.74999999999983);
#123=CIRCLE('',#345,2.75000000000028);
#124=CIRCLE('',#346,2.75000000000028);
#125=CIRCLE('',#348,2.75000000000028);
#126=CIRCLE('',#349,2.75000000000028);
#127=CIRCLE('',#351,2.74999999999983);
#128=CIRCLE('',#352,2.74999999999983);
#129=CIRCLE('',#354,2.75000000000028);
#130=CIRCLE('',#355,2.75000000000028);
#131=CIRCLE('',#357,2.75000000000028);
#132=CIRCLE('',#358,2.75000000000028);
#133=CIRCLE('',#360,5.00000000000006);
#134=CIRCLE('',#361,5.);
#135=CIRCLE('',#362,2.);
#136=CIRCLE('',#363,2.);
#137=CIRCLE('',#365,5.00000000000006);
#138=CIRCLE('',#368,5.);
#139=CIRCLE('',#371,2.);
#140=CIRCLE('',#374,2.);
#141=VERTEX_POINT('',#475);
#142=VERTEX_POINT('',#477);
#143=VERTEX_POINT('',#481);
#144=VERTEX_POINT('',#483);
#145=VERTEX_POINT('',#487);
#146=VERTEX_POINT('',#489);
#147=VERTEX_POINT('',#493);
#148=VERTEX_POINT('',#495);
#149=VERTEX_POINT('',#499);
#150=VERTEX_POINT('',#501);
#151=VERTEX_POINT('',#505);
#152=VERTEX_POINT('',#507);
#153=VERTEX_POINT('',#511);
#154=VERTEX_POINT('',#512);
#155=VERTEX_POINT('',#514);
#156=VERTEX_POINT('',#516);
#157=VERTEX_POINT('',#518);
#158=VERTEX_POINT('',#520);
#159=VERTEX_POINT('',#522);
#160=VERTEX_POINT('',#524);
#161=VERTEX_POINT('',#528);
#162=VERTEX_POINT('',#530);
#163=VERTEX_POINT('',#534);
#164=VERTEX_POINT('',#538);
#165=VERTEX_POINT('',#542);
#166=VERTEX_POINT('',#546);
#167=VERTEX_POINT('',#550);
#168=VERTEX_POINT('',#554);
#169=EDGE_CURVE('',#141,#141,#121,.T.);
#170=EDGE_CURVE('',#141,#142,#77,.T.);
#171=EDGE_CURVE('',#142,#142,#122,.T.);
#172=EDGE_CURVE('',#143,#143,#123,.T.);
#173=EDGE_CURVE('',#143,#144,#78,.T.);
#174=EDGE_CURVE('',#144,#144,#124,.T.);
#175=EDGE_CURVE('',#145,#145,#125,.T.);
#176=EDGE_CURVE('',#145,#146,#79,.T.);
#177=EDGE_CURVE('',#146,#146,#126,.T.);
#178=EDGE_CURVE('',#147,#147,#127,.T.);
#179=EDGE_CURVE('',#147,#148,#80,.T.);
#180=EDGE_CURVE('',#148,#148,#128,.T.);
#181=EDGE_CURVE('',#149,#149,#129,.T.);
#182=EDGE_CURVE('',#149,#150,#81,.T.);
#183=EDGE_CURVE('',#150,#150,#130,.T.);
#184=EDGE_CURVE('',#151,#151,#131,.T.);
#185=EDGE_CURVE('',#151,#152,#82,.T.);
#186=EDGE_CURVE('',#152,#152,#132,.T.);
#187=EDGE_CURVE('',#153,#154,#83,.T.);
#188=EDGE_CURVE('',#154,#155,#133,.T.);
#189=EDGE_CURVE('',#155,#156,#84,.T.);
#190=EDGE_CURVE('',#156,#157,#134,.T.);
#191=EDGE_CURVE('',#157,#158,#85,.T.);
#192=EDGE_CURVE('',#158,#159,#135,.T.);
#193=EDGE_CURVE('',#159,#160,#86,.T.);
#194=EDGE_CURVE('',#160,#153,#136,.T.);
#195=EDGE_CURVE('',#161,#154,#87,.T.);
#196=EDGE_CURVE('',#162,#161,#137,.T.);
#197=EDGE_CURVE('',#155,#162,#88,.T.);
#198=EDGE_CURVE('',#163,#162,#89,.T.);
#199=EDGE_CURVE('',#156,#163,#90,.T.);
#200=EDGE_CURVE('',#164,#163,#138,.T.);
#201=EDGE_CURVE('',#157,#164,#91,.T.);
#202=EDGE_CURVE('',#165,#164,#92,.T.);
#203=EDGE_CURVE('',#158,#165,#93,.T.);
#204=EDGE_CURVE('',#166,#165,#139,.T.);
#205=EDGE_CURVE('',#159,#166,#94,.T.);
#206=EDGE_CURVE('',#167,#166,#95,.T.);
#207=EDGE_CURVE('',#160,#167,#96,.T.);
#208=EDGE_CURVE('',#168,#167,#140,.T.);
#209=EDGE_CURVE('',#153,#168,#97,.T.);
#210=EDGE_CURVE('',#161,#168,#98,.T.);
#211=ORIENTED_EDGE('',*,*,#169,.F.);
#212=ORIENTED_EDGE('',*,*,#170,.T.);
#213=ORIENTED_EDGE('',*,*,#171,.F.);
#214=ORIENTED_EDGE('',*,*,#170,.F.);
#215=ORIENTED_EDGE('',*,*,#172,.F.);
#216=ORIENTED_EDGE('',*,*,#173,.T.);
#217=ORIENTED_EDGE('',*,*,#174,.F.);
#218=ORIENTED_EDGE('',*,*,#173,.F.);
#219=ORIENTED_EDGE('',*,*,#175,.F.);
#220=ORIENTED_EDGE('',*,*,#176,.T.);
#221=ORIENTED_EDGE('',*,*,#177,.F.);
#222=ORIENTED_EDGE('',*,*,#176,.F.);
#223=ORIENTED_EDGE('',*,*,#178,.F.);
#224=ORIENTED_EDGE('',*,*,#179,.T.);
#225=ORIENTED_EDGE('',*,*,#180,.F.);
#226=ORIENTED_EDGE('',*,*,#179,.F.);
#227=ORIENTED_EDGE('',*,*,#181,.F.);
#228=ORIENTED_EDGE('',*,*,#182,.T.);
#229=ORIENTED_EDGE('',*,*,#183,.F.);
#230=ORIENTED_EDGE('',*,*,#182,.F.);
#231=ORIENTED_EDGE('',*,*,#184,.F.);
#232=ORIENTED_EDGE('',*,*,#185,.T.);
#233=ORIENTED_EDGE('',*,*,#186,.F.);
#234=ORIENTED_EDGE('',*,*,#185,.F.);
#235=ORIENTED_EDGE('',*,*,#187,.T.);
#236=ORIENTED_EDGE('',*,*,#188,.T.);
#237=ORIENTED_EDGE('',*,*,#189,.T.);
#238=ORIENTED_EDGE('',*,*,#190,.T.);
#239=ORIENTED_EDGE('',*,*,#191,.T.);
#240=ORIENTED_EDGE('',*,*,#192,.T.);
#241=ORIENTED_EDGE('',*,*,#193,.T.);
#242=ORIENTED_EDGE('',*,*,#194,.T.);
#243=ORIENTED_EDGE('',*,*,#169,.T.);
#244=ORIENTED_EDGE('',*,*,#172,.T.);
#245=ORIENTED_EDGE('',*,*,#175,.T.);
#246=ORIENTED_EDGE('',*,*,#178,.T.);
#247=ORIENTED_EDGE('',*,*,#181,.T.);
#248=ORIENTED_EDGE('',*,*,#184,.T.);
#249=ORIENTED_EDGE('',*,*,#195,.F.);
#250=ORIENTED_EDGE('',*,*,#196,.F.);
#251=ORIENTED_EDGE('',*,*,#197,.F.);
#252=ORIENTED_EDGE('',*,*,#188,.F.);
#253=ORIENTED_EDGE('',*,*,#197,.T.);
#254=ORIENTED_EDGE('',*,*,#198,.F.);
#255=ORIENTED_EDGE('',*,*,#199,.F.);
#256=ORIENTED_EDGE('',*,*,#189,.F.);
#257=ORIENTED_EDGE('',*,*,#199,.T.);
#258=ORIENTED_EDGE('',*,*,#200,.F.);
#259=ORIENTED_EDGE('',*,*,#201,.F.);
#260=ORIENTED_EDGE('',*,*,#190,.F.);
#261=ORIENTED_EDGE('',*,*,#201,.T.);
#262=ORIENTED_EDGE('',*,*,#202,.F.);
#263=ORIENTED_EDGE('',*,*,#203,.F.);
#264=ORIENTED_EDGE('',*,*,#191,.F.);
#265=ORIENTED_EDGE('',*,*,#203,.T.);
#266=ORIENTED_EDGE('',*,*,#204,.F.);
#267=ORIENTED_EDGE('',*,*,#205,.F.);
#268=ORIENTED_EDGE('',*,*,#192,.F.);
#269=ORIENTED_EDGE('',*,*,#205,.T.);
#270=ORIENTED_EDGE('',*,*,#206,.F.);
#271=ORIENTED_EDGE('',*,*,#207,.F.);
#272=ORIENTED_EDGE('',*,*,#193,.F.);
#273=ORIENTED_EDGE('',*,*,#207,.T.);
#274=ORIENTED_EDGE('',*,*,#208,.F.);
#275=ORIENTED_EDGE('',*,*,#209,.F.);
#276=ORIENTED_EDGE('',*,*,#194,.F.);
#277=ORIENTED_EDGE('',*,*,#209,.T.);
#278=ORIENTED_EDGE('',*,*,#210,.F.);
#279=ORIENTED_EDGE('',*,*,#195,.T.);
#280=ORIENTED_EDGE('',*,*,#187,.F.);
#281=ORIENTED_EDGE('',*,*,#210,.T.);
#282=ORIENTED_EDGE('',*,*,#208,.T.);
#283=ORIENTED_EDGE('',*,*,#206,.T.);
#284=ORIENTED_EDGE('',*,*,#204,.T.);
#285=ORIENTED_EDGE('',*,*,#202,.T.);
#286=ORIENTED_EDGE('',*,*,#200,.T.);
#287=ORIENTED_EDGE('',*,*,#198,.T.);
#288=ORIENTED_EDGE('',*,*,#196,.T.);
#289=ORIENTED_EDGE('',*,*,#171,.T.);
#290=ORIENTED_EDGE('',*,*,#174,.T.);
#291=ORIENTED_EDGE('',*,*,#177,.T.);
#292=ORIENTED_EDGE('',*,*,#180,.T.);
#293=ORIENTED_EDGE('',*,*,#183,.T.);
#294=ORIENTED_EDGE('',*,*,#186,.T.);
#295=CYLINDRICAL_SURFACE('',#341,2.74999999999983);
#296=CYLINDRICAL_SURFACE('',#344,2.75000000000028);
#297=CYLINDRICAL_SURFACE('',#347,2.75000000000028);
#298=CYLINDRICAL_SURFACE('',#350,2.74999999999983);
#299=CYLINDRICAL_SURFACE('',#353,2.75000000000028);
#300=CYLINDRICAL_SURFACE('',#356,2.75000000000028);
#301=CYLINDRICAL_SURFACE('',#364,5.00000000000006);
#302=CYLINDRICAL_SURFACE('',#367,5.);
#303=CYLINDRICAL_SURFACE('',#370,2.);
#304=CYLINDRICAL_SURFACE('',#373,2.);
#305=ADVANCED_FACE('',(#33),#295,.F.);
#306=ADVANCED_FACE('',(#34),#296,.F.);
#307=ADVANCED_FACE('',(#35),#297,.F.);
#308=ADVANCED_FACE('',(#36),#298,.F.);
#309=ADVANCED_FACE('',(#37),#299,.F.);
#310=ADVANCED_FACE('',(#38),#300,.F.);
#311=ADVANCED_FACE('',(#39,#15,#16,#17,#18,#19,#20),#27,.F.);
#312=ADVANCED_FACE('',(#40),#301,.T.);
#313=ADVANCED_FACE('',(#41),#28,.T.);
#314=ADVANCED_FACE('',(#42),#302,.T.);
#315=ADVANCED_FACE('',(#43),#29,.T.);
#316=ADVANCED_FACE('',(#44),#303,.T.);
#317=ADVANCED_FACE('',(#45),#30,.T.);
#318=ADVANCED_FACE('',(#46),#304,.T.);
#319=ADVANCED_FACE('',(#47),#31,.T.);
#320=ADVANCED_FACE('',(#48,#21,#22,#23,#24,#25,#26),#32,.T.);
#321=CLOSED_SHELL('',(#305,#306,#307,#308,#309,#310,#311,#312,#313,#314,
#315,#316,#317,#318,#319,#320));
#322=DERIVED_UNIT_ELEMENT(#324,1.);
#323=DERIVED_UNIT_ELEMENT(#565,-3.);
#324=(
MASS_UNIT()
NAMED_UNIT(*)
SI_UNIT($,.GRAM.)
);
#325=DERIVED_UNIT((#322,#323));
#326=MEASURE_REPRESENTATION_ITEM('density measure',
POSITIVE_RATIO_MEASURE(8.),#325);
#327=PROPERTY_DEFINITION_REPRESENTATION(#332,#329);
#328=PROPERTY_DEFINITION_REPRESENTATION(#333,#330);
#329=REPRESENTATION('material name',(#331),#562);
#330=REPRESENTATION('density',(#326),#562);
#331=DESCRIPTIVE_REPRESENTATION_ITEM('Acciaio inossidabile',
'Acciaio inossidabile');
#332=PROPERTY_DEFINITION('material property','material name',#572);
#333=PROPERTY_DEFINITION('material property','density of part',#572);
#334=DATE_TIME_ROLE('creation_date');
#335=APPLIED_DATE_AND_TIME_ASSIGNMENT(#336,#334,(#572));
#336=DATE_AND_TIME(#337,#338);
#337=CALENDAR_DATE(2019,28,2);
#338=LOCAL_TIME(0,0,0.,#339);
#339=COORDINATED_UNIVERSAL_TIME_OFFSET(0,0,.BEHIND.);
#340=AXIS2_PLACEMENT_3D('placement',#473,#377,#378);
#341=AXIS2_PLACEMENT_3D('',#474,#379,#380);
#342=AXIS2_PLACEMENT_3D('',#476,#381,#382);
#343=AXIS2_PLACEMENT_3D('',#479,#384,#385);
#344=AXIS2_PLACEMENT_3D('',#480,#386,#387);
#345=AXIS2_PLACEMENT_3D('',#482,#388,#389);
#346=AXIS2_PLACEMENT_3D('',#485,#391,#392);
#347=AXIS2_PLACEMENT_3D('',#486,#393,#394);
#348=AXIS2_PLACEMENT_3D('',#488,#395,#396);
#349=AXIS2_PLACEMENT_3D('',#491,#398,#399);
#350=AXIS2_PLACEMENT_3D('',#492,#400,#401);
#351=AXIS2_PLACEMENT_3D('',#494,#402,#403);
#352=AXIS2_PLACEMENT_3D('',#497,#405,#406);
#353=AXIS2_PLACEMENT_3D('',#498,#407,#408);
#354=AXIS2_PLACEMENT_3D('',#500,#409,#410);
#355=AXIS2_PLACEMENT_3D('',#503,#412,#413);
#356=AXIS2_PLACEMENT_3D('',#504,#414,#415);
#357=AXIS2_PLACEMENT_3D('',#506,#416,#417);
#358=AXIS2_PLACEMENT_3D('',#509,#419,#420);
#359=AXIS2_PLACEMENT_3D('',#510,#421,#422);
#360=AXIS2_PLACEMENT_3D('',#515,#424,#425);
#361=AXIS2_PLACEMENT_3D('',#519,#427,#428);
#362=AXIS2_PLACEMENT_3D('',#523,#430,#431);
#363=AXIS2_PLACEMENT_3D('',#526,#433,#434);
#364=AXIS2_PLACEMENT_3D('',#527,#435,#436);
#365=AXIS2_PLACEMENT_3D('',#531,#438,#439);
#366=AXIS2_PLACEMENT_3D('',#533,#441,#442);
#367=AXIS2_PLACEMENT_3D('',#537,#445,#446);
#368=AXIS2_PLACEMENT_3D('',#539,#447,#448);
#369=AXIS2_PLACEMENT_3D('',#541,#450,#451);
#370=AXIS2_PLACEMENT_3D('',#545,#454,#455);
#371=AXIS2_PLACEMENT_3D('',#547,#456,#457);
#372=AXIS2_PLACEMENT_3D('',#549,#459,#460);
#373=AXIS2_PLACEMENT_3D('',#553,#463,#464);
#374=AXIS2_PLACEMENT_3D('',#555,#465,#466);
#375=AXIS2_PLACEMENT_3D('',#557,#468,#469);
#376=AXIS2_PLACEMENT_3D('',#559,#471,#472);
#377=DIRECTION('axis',(0.,0.,1.));
#378=DIRECTION('refdir',(1.,0.,0.));
#379=DIRECTION('center_axis',(0.,0.,1.));
#380=DIRECTION('ref_axis',(-1.,0.,0.));
#381=DIRECTION('center_axis',(0.,0.,1.));
#382=DIRECTION('ref_axis',(-1.,0.,0.));
#383=DIRECTION('',(0.,0.,1.));
#384=DIRECTION('center_axis',(0.,0.,-1.));
#385=DIRECTION('ref_axis',(-1.,0.,0.));
#386=DIRECTION('center_axis',(0.,0.,1.));
#387=DIRECTION('ref_axis',(-1.,0.,0.));
#388=DIRECTION('center_axis',(0.,0.,1.));
#389=DIRECTION('ref_axis',(-1.,0.,0.));
#390=DIRECTION('',(0.,0.,1.));
#391=DIRECTION('center_axis',(0.,0.,-1.));
#392=DIRECTION('ref_axis',(-1.,0.,0.));
#393=DIRECTION('center_axis',(0.,0.,1.));
#394=DIRECTION('ref_axis',(-1.,0.,0.));
#395=DIRECTION('center_axis',(0.,0.,1.));
#396=DIRECTION('ref_axis',(-1.,0.,0.));
#397=DIRECTION('',(0.,0.,1.));
#398=DIRECTION('center_axis',(0.,0.,-1.));
#399=DIRECTION('ref_axis',(-1.,0.,0.));
#400=DIRECTION('center_axis',(0.,0.,1.));
#401=DIRECTION('ref_axis',(-1.,0.,0.));
#402=DIRECTION('center_axis',(0.,0.,1.));
#403=DIRECTION('ref_axis',(-1.,0.,0.));
#404=DIRECTION('',(0.,0.,1.));
#405=DIRECTION('center_axis',(0.,0.,-1.));
#406=DIRECTION('ref_axis',(-1.,0.,0.));
#407=DIRECTION('center_axis',(0.,0.,1.));
#408=DIRECTION('ref_axis',(-1.,0.,0.));
#409=DIRECTION('center_axis',(0.,0.,1.));
#410=DIRECTION('ref_axis',(-1.,0.,0.));
#411=DIRECTION('',(0.,0.,1.));
#412=DIRECTION('center_axis',(0.,0.,-1.));
#413=DIRECTION('ref_axis',(-1.,0.,0.));
#414=DIRECTION('center_axis',(0.,0.,1.));
#415=DIRECTION('ref_axis',(-1.,0.,0.));
#416=DIRECTION('center_axis',(0.,0.,1.));
#417=DIRECTION('ref_axis',(-1.,0.,0.));
#418=DIRECTION('',(0.,0.,1.));
#419=DIRECTION('center_axis',(0.,0.,-1.));
#420=DIRECTION('ref_axis',(-1.,0.,0.));
#421=DIRECTION('center_axis',(0.,0.,1.));
#422=DIRECTION('ref_axis',(1.,0.,0.));
#423=DIRECTION('',(7.30009660027499E-16,1.,0.));
#424=DIRECTION('center_axis',(0.,0.,-1.));
#425=DIRECTION('ref_axis',(0.,1.,0.));
#426=DIRECTION('',(1.,0.,0.));
#427=DIRECTION('center_axis',(0.,0.,-1.));
#428=DIRECTION('ref_axis',(1.,0.,0.));
#429=DIRECTION('',(4.86673106684999E-16,-1.,0.));
#430=DIRECTION('center_axis',(0.,0.,-1.));
#431=DIRECTION('ref_axis',(0.,-1.,0.));
#432=DIRECTION('',(-1.,0.,0.));
#433=DIRECTION('center_axis',(0.,0.,-1.));
#434=DIRECTION('ref_axis',(-1.,8.88178419700128E-15,0.));
#435=DIRECTION('center_axis',(0.,0.,1.));
#436=DIRECTION('ref_axis',(0.,1.,0.));
#437=DIRECTION('',(0.,0.,-1.));
#438=DIRECTION('center_axis',(0.,0.,1.));
#439=DIRECTION('ref_axis',(0.,1.,0.));
#440=DIRECTION('',(0.,0.,1.));
#441=DIRECTION('center_axis',(0.,1.,0.));
#442=DIRECTION('ref_axis',(-1.,0.,0.));
#443=DIRECTION('',(-1.,0.,0.));
#444=DIRECTION('',(0.,0.,1.));
#445=DIRECTION('center_axis',(0.,0.,1.));
#446=DIRECTION('ref_axis',(1.,0.,0.));
#447=DIRECTION('center_axis',(0.,0.,1.));
#448=DIRECTION('ref_axis',(1.,0.,0.));
#449=DIRECTION('',(0.,0.,1.));
#450=DIRECTION('center_axis',(1.,4.86673106684999E-16,0.));
#451=DIRECTION('ref_axis',(-4.86673106684999E-16,1.,0.));
#452=DIRECTION('',(-4.86673106684999E-16,1.,0.));
#453=DIRECTION('',(0.,0.,1.));
#454=DIRECTION('center_axis',(0.,0.,1.));
#455=DIRECTION('ref_axis',(0.,-1.,0.));
#456=DIRECTION('center_axis',(0.,0.,1.));
#457=DIRECTION('ref_axis',(0.,-1.,0.));
#458=DIRECTION('',(0.,0.,1.));
#459=DIRECTION('center_axis',(0.,-1.,0.));
#460=DIRECTION('ref_axis',(1.,0.,0.));
#461=DIRECTION('',(1.,0.,0.));
#462=DIRECTION('',(0.,0.,1.));
#463=DIRECTION('center_axis',(0.,0.,1.));
#464=DIRECTION('ref_axis',(-1.,8.88178419700128E-15,0.));
#465=DIRECTION('center_axis',(0.,0.,1.));
#466=DIRECTION('ref_axis',(-1.,8.88178419700128E-15,0.));
#467=DIRECTION('',(0.,0.,1.));
#468=DIRECTION('center_axis',(-1.,7.30009660027499E-16,0.));
#469=DIRECTION('ref_axis',(-7.30009660027499E-16,-1.,0.));
#470=DIRECTION('',(-7.30009660027499E-16,-1.,0.));
#471=DIRECTION('center_axis',(0.,0.,1.));
#472=DIRECTION('ref_axis',(1.,0.,0.));
#473=CARTESIAN_POINT('',(0.,0.,0.));
#474=CARTESIAN_POINT('Origin',(1.06581410364015E-13,-24.9999999999998,0.));
#475=CARTESIAN_POINT('',(2.74999999999994,-24.9999999999998,-1.));
#476=CARTESIAN_POINT('Origin',(1.06581410364015E-13,-24.9999999999998,-1.));
#477=CARTESIAN_POINT('',(2.74999999999994,-24.9999999999998,1.));
#478=CARTESIAN_POINT('',(2.74999999999994,-24.9999999999998,0.));
#479=CARTESIAN_POINT('Origin',(1.06581410364015E-13,-24.9999999999998,1.));
#480=CARTESIAN_POINT('Origin',(69.9999999999999,36.,0.));
#481=CARTESIAN_POINT('',(72.7500000000002,36.,-1.));
#482=CARTESIAN_POINT('Origin',(69.9999999999999,36.,-1.));
#483=CARTESIAN_POINT('',(72.7500000000002,36.,1.));
#484=CARTESIAN_POINT('',(72.7500000000002,36.,0.));
#485=CARTESIAN_POINT('Origin',(69.9999999999999,36.,1.));
#486=CARTESIAN_POINT('Origin',(-70.0000000000002,36.,0.));
#487=CARTESIAN_POINT('',(-67.2499999999999,36.,-1.));
#488=CARTESIAN_POINT('Origin',(-70.0000000000002,36.,-1.));
#489=CARTESIAN_POINT('',(-67.2499999999999,36.,1.));
#490=CARTESIAN_POINT('',(-67.2499999999999,36.,0.));
#491=CARTESIAN_POINT('Origin',(-70.0000000000002,36.,1.));
#492=CARTESIAN_POINT('Origin',(1.06581410364015E-13,36.,0.));
#493=CARTESIAN_POINT('',(2.74999999999994,36.,-1.));
#494=CARTESIAN_POINT('Origin',(1.06581410364015E-13,36.,-1.));
#495=CARTESIAN_POINT('',(2.74999999999994,36.,1.));
#496=CARTESIAN_POINT('',(2.74999999999994,36.,0.));
#497=CARTESIAN_POINT('Origin',(1.06581410364015E-13,36.,1.));
#498=CARTESIAN_POINT('Origin',(-70.0000000000002,-24.9999999999998,0.));
#499=CARTESIAN_POINT('',(-67.2499999999999,-24.9999999999998,-1.));
#500=CARTESIAN_POINT('Origin',(-70.0000000000002,-24.9999999999998,-1.));
#501=CARTESIAN_POINT('',(-67.2499999999999,-24.9999999999998,1.));
#502=CARTESIAN_POINT('',(-67.2499999999999,-24.9999999999998,0.));
#503=CARTESIAN_POINT('Origin',(-70.0000000000002,-24.9999999999998,1.));
#504=CARTESIAN_POINT('Origin',(69.9999999999999,-24.9999999999998,0.));
#505=CARTESIAN_POINT('',(72.7500000000002,-24.9999999999998,-1.));
#506=CARTESIAN_POINT('Origin',(69.9999999999999,-24.9999999999998,-1.));
#507=CARTESIAN_POINT('',(72.7500000000002,-24.9999999999998,1.));
#508=CARTESIAN_POINT('',(72.7500000000002,-24.9999999999998,0.));
#509=CARTESIAN_POINT('Origin',(69.9999999999999,-24.9999999999998,1.));
#510=CARTESIAN_POINT('Origin',(-3.52198987022666E-15,-0.354127766812922,
-1.));
#511=CARTESIAN_POINT('',(-100.,-38.0000000000001,-1.));
#512=CARTESIAN_POINT('',(-99.9999999999999,35.,-1.));
#513=CARTESIAN_POINT('',(-99.9999999999999,35.,-1.));
#514=CARTESIAN_POINT('',(-94.9999999999999,40.0000000000001,-1.));
#515=CARTESIAN_POINT('Origin',(-94.9999999999999,35.,-1.));
#516=CARTESIAN_POINT('',(94.9999999999999,40.0000000000001,-1.));
#517=CARTESIAN_POINT('',(94.9999999999999,40.0000000000001,-1.));
#518=CARTESIAN_POINT('',(100.,35.,-1.));
#519=CARTESIAN_POINT('Origin',(94.9999999999999,35.,-1.));
#520=CARTESIAN_POINT('',(100.,-38.0000000000001,-1.));
#521=CARTESIAN_POINT('',(100.,-38.0000000000001,-1.));
#522=CARTESIAN_POINT('',(98.,-40.0000000000001,-1.));
#523=CARTESIAN_POINT('Origin',(98.,-38.0000000000001,-1.));
#524=CARTESIAN_POINT('',(-98.,-40.0000000000001,-1.));
#525=CARTESIAN_POINT('',(-98.,-40.0000000000001,-1.));
#526=CARTESIAN_POINT('Origin',(-98.,-38.0000000000001,-1.));
#527=CARTESIAN_POINT('Origin',(-94.9999999999999,35.,0.));
#528=CARTESIAN_POINT('',(-99.9999999999999,35.,1.));
#529=CARTESIAN_POINT('',(-99.9999999999999,35.,0.));
#530=CARTESIAN_POINT('',(-94.9999999999999,40.0000000000001,1.));
#531=CARTESIAN_POINT('Origin',(-94.9999999999999,35.,1.));
#532=CARTESIAN_POINT('',(-94.9999999999999,40.0000000000001,0.));
#533=CARTESIAN_POINT('Origin',(94.9999999999999,40.0000000000001,0.));
#534=CARTESIAN_POINT('',(94.9999999999999,40.0000000000001,1.));
#535=CARTESIAN_POINT('',(94.9999999999999,40.0000000000001,1.));
#536=CARTESIAN_POINT('',(94.9999999999999,40.0000000000001,0.));
#537=CARTESIAN_POINT('Origin',(94.9999999999999,35.,0.));
#538=CARTESIAN_POINT('',(100.,35.,1.));
#539=CARTESIAN_POINT('Origin',(94.9999999999999,35.,1.));
#540=CARTESIAN_POINT('',(100.,35.,0.));
#541=CARTESIAN_POINT('Origin',(100.,-38.0000000000001,0.));
#542=CARTESIAN_POINT('',(100.,-38.0000000000001,1.));
#543=CARTESIAN_POINT('',(100.,-38.0000000000001,1.));
#544=CARTESIAN_POINT('',(100.,-38.0000000000001,0.));
#545=CARTESIAN_POINT('Origin',(98.,-38.0000000000001,0.));
#546=CARTESIAN_POINT('',(98.,-40.0000000000001,1.));
#547=CARTESIAN_POINT('Origin',(98.,-38.0000000000001,1.));
#548=CARTESIAN_POINT('',(98.,-40.0000000000001,0.));
#549=CARTESIAN_POINT('Origin',(-98.,-40.0000000000001,0.));
#550=CARTESIAN_POINT('',(-98.,-40.0000000000001,1.));
#551=CARTESIAN_POINT('',(-98.,-40.0000000000001,1.));
#552=CARTESIAN_POINT('',(-98.,-40.0000000000001,0.));
#553=CARTESIAN_POINT('Origin',(-98.,-38.0000000000001,0.));
#554=CARTESIAN_POINT('',(-100.,-38.0000000000001,1.));
#555=CARTESIAN_POINT('Origin',(-98.,-38.0000000000001,1.));
#556=CARTESIAN_POINT('',(-100.,-38.0000000000001,0.));
#557=CARTESIAN_POINT('Origin',(-99.9999999999999,35.,0.));
#558=CARTESIAN_POINT('',(-99.9999999999999,35.,1.));
#559=CARTESIAN_POINT('Origin',(-3.52198987022666E-15,-0.354127766812922,
1.));
#560=UNCERTAINTY_MEASURE_WITH_UNIT(LENGTH_MEASURE(0.01),#564,
'DISTANCE_ACCURACY_VALUE',
'Maximum model space distance between geometric entities at asserted c
onnectivities');
#561=UNCERTAINTY_MEASURE_WITH_UNIT(LENGTH_MEASURE(0.01),#564,
'DISTANCE_ACCURACY_VALUE',
'Maximum model space distance between geometric entities at asserted c
onnectivities');
#562=(
GEOMETRIC_REPRESENTATION_CONTEXT(3)
GLOBAL_UNCERTAINTY_ASSIGNED_CONTEXT((#560))
GLOBAL_UNIT_ASSIGNED_CONTEXT((#564,#566,#567))
REPRESENTATION_CONTEXT('','3D')
);
#563=(
GEOMETRIC_REPRESENTATION_CONTEXT(3)
GLOBAL_UNCERTAINTY_ASSIGNED_CONTEXT((#561))
GLOBAL_UNIT_ASSIGNED_CONTEXT((#564,#566,#567))
REPRESENTATION_CONTEXT('','3D')
);
#564=(
LENGTH_UNIT()
NAMED_UNIT(*)
SI_UNIT(.MILLI.,.METRE.)
);
#565=(
LENGTH_UNIT()
NAMED_UNIT(*)
SI_UNIT(.CENTI.,.METRE.)
);
#566=(
NAMED_UNIT(*)
PLANE_ANGLE_UNIT()
SI_UNIT($,.RADIAN.)
);
#567=(
NAMED_UNIT(*)
SI_UNIT($,.STERADIAN.)
SOLID_ANGLE_UNIT()
);
#568=SHAPE_DEFINITION_REPRESENTATION(#569,#570);
#569=PRODUCT_DEFINITION_SHAPE('',$,#572);
#570=SHAPE_REPRESENTATION('',(#340),#562);
#571=PRODUCT_DEFINITION_CONTEXT('part definition',#576,'design');
#572=PRODUCT_DEFINITION('CE80-03','CE80-03',#573,#571);
#573=PRODUCT_DEFINITION_FORMATION('A00',$,#578);
#574=PRODUCT_RELATED_PRODUCT_CATEGORY('CE80-03','CE80-03',(#578));
#575=APPLICATION_PROTOCOL_DEFINITION('international standard',
'automotive_design',2009,#576);
#576=APPLICATION_CONTEXT(
'Core Data for Automotive Mechanical Design Process');
#577=PRODUCT_CONTEXT('part definition',#576,'mechanical');
#578=PRODUCT('CE80-03','CE80-03',
'Tappo acciaio inossidabile profilo canalina portacavi 80x200',(#577));
#579=PRESENTATION_STYLE_ASSIGNMENT((#580));
#580=SURFACE_STYLE_USAGE(.BOTH.,#583);
#581=SURFACE_STYLE_RENDERING_WITH_PROPERTIES($,#587,(#582));
#582=SURFACE_STYLE_TRANSPARENT(0.);
#583=SURFACE_SIDE_STYLE('',(#584,#581));
#584=SURFACE_STYLE_FILL_AREA(#585);
#585=FILL_AREA_STYLE('',(#586));
#586=FILL_AREA_STYLE_COLOUR('',#587);
#587=COLOUR_RGB('',0.745098039215686,0.737254901960784,0.729411764705882);
ENDSEC;
END-ISO-10303-21;
