ISO-10303-21;
HEADER;
/* Generated by software containing ST-Developer
 * from STEP Tools, Inc. (www.steptools.com) 
 */

FILE_DESCRIPTION(
/* description */ (
'Tappo acciaio inossidabile profilo canalina portacavi 80x80'),
/* implementation_level */ '2;1');

FILE_NAME(
/* name */ 'C:\\Users\\Stefan.Nesic\\Desktop\\01010STEP\\CE80-01.stp',
/* time_stamp */ '2022-06-17T14:59:06+02:00',
/* author */ ('Davide'),
/* organization */ (''),
/* preprocessor_version */ 'ST-DEVELOPER v18.1',
/* originating_system */ 'Autodesk Inventor 2021',
/* authorisation */ '');

FILE_SCHEMA (('AUTOMOTIVE_DESIGN { 1 0 10303 214 3 1 1 }'));
ENDSEC;

DATA;
#10=MECHANICAL_DESIGN_GEOMETRIC_PRESENTATION_REPRESENTATION('',(#13),#446);
#11=SHAPE_REPRESENTATION_RELATIONSHIP('SRR','None',#453,#12);
#12=ADVANCED_BREP_SHAPE_REPRESENTATION('',(#14),#445);
#13=STYLED_ITEM('',(#462),#14);
#14=MANIFOLD_SOLID_BREP('Solido1',#252);
#15=FACE_BOUND('',#44,.T.);
#16=FACE_BOUND('',#45,.T.);
#17=FACE_BOUND('',#46,.T.);
#18=FACE_BOUND('',#56,.T.);
#19=FACE_BOUND('',#57,.T.);
#20=FACE_BOUND('',#58,.T.);
#21=PLANE('',#281);
#22=PLANE('',#288);
#23=PLANE('',#291);
#24=PLANE('',#294);
#25=PLANE('',#297);
#26=PLANE('',#298);
#27=FACE_OUTER_BOUND('',#40,.T.);
#28=FACE_OUTER_BOUND('',#41,.T.);
#29=FACE_OUTER_BOUND('',#42,.T.);
#30=FACE_OUTER_BOUND('',#43,.T.);
#31=FACE_OUTER_BOUND('',#47,.T.);
#32=FACE_OUTER_BOUND('',#48,.T.);
#33=FACE_OUTER_BOUND('',#49,.T.);
#34=FACE_OUTER_BOUND('',#50,.T.);
#35=FACE_OUTER_BOUND('',#51,.T.);
#36=FACE_OUTER_BOUND('',#52,.T.);
#37=FACE_OUTER_BOUND('',#53,.T.);
#38=FACE_OUTER_BOUND('',#54,.T.);
#39=FACE_OUTER_BOUND('',#55,.T.);
#40=EDGE_LOOP('',(#166,#167,#168,#169));
#41=EDGE_LOOP('',(#170,#171,#172,#173));
#42=EDGE_LOOP('',(#174,#175,#176,#177));
#43=EDGE_LOOP('',(#178,#179,#180,#181,#182,#183,#184,#185));
#44=EDGE_LOOP('',(#186));
#45=EDGE_LOOP('',(#187));
#46=EDGE_LOOP('',(#188));
#47=EDGE_LOOP('',(#189,#190,#191,#192));
#48=EDGE_LOOP('',(#193,#194,#195,#196));
#49=EDGE_LOOP('',(#197,#198,#199,#200));
#50=EDGE_LOOP('',(#201,#202,#203,#204));
#51=EDGE_LOOP('',(#205,#206,#207,#208));
#52=EDGE_LOOP('',(#209,#210,#211,#212));
#53=EDGE_LOOP('',(#213,#214,#215,#216));
#54=EDGE_LOOP('',(#217,#218,#219,#220));
#55=EDGE_LOOP('',(#221,#222,#223,#224,#225,#226,#227,#228));
#56=EDGE_LOOP('',(#229));
#57=EDGE_LOOP('',(#230));
#58=EDGE_LOOP('',(#231));
#59=LINE('',#379,#78);
#60=LINE('',#385,#79);
#61=LINE('',#391,#80);
#62=LINE('',#396,#81);
#63=LINE('',#400,#82);
#64=LINE('',#404,#83);
#65=LINE('',#408,#84);
#66=LINE('',#412,#85);
#67=LINE('',#415,#86);
#68=LINE('',#418,#87);
#69=LINE('',#419,#88);
#70=LINE('',#423,#89);
#71=LINE('',#426,#90);
#72=LINE('',#427,#91);
#73=LINE('',#431,#92);
#74=LINE('',#434,#93);
#75=LINE('',#435,#94);
#76=LINE('',#439,#95);
#77=LINE('',#441,#96);
#78=VECTOR('',#305,2.75);
#79=VECTOR('',#312,2.75000000000006);
#80=VECTOR('',#319,2.75000000000006);
#81=VECTOR('',#324,10.);
#82=VECTOR('',#327,10.);
#83=VECTOR('',#330,10.);
#84=VECTOR('',#333,10.);
#85=VECTOR('',#338,10.);
#86=VECTOR('',#341,10.);
#87=VECTOR('',#344,10.);
#88=VECTOR('',#345,10.);
#89=VECTOR('',#350,10.);
#90=VECTOR('',#353,10.);
#91=VECTOR('',#354,10.);
#92=VECTOR('',#359,10.);
#93=VECTOR('',#362,10.);
#94=VECTOR('',#363,10.);
#95=VECTOR('',#368,10.);
#96=VECTOR('',#371,10.);
#97=CIRCLE('',#273,2.75);
#98=CIRCLE('',#274,2.75);
#99=CIRCLE('',#276,2.75000000000006);
#100=CIRCLE('',#277,2.75000000000006);
#101=CIRCLE('',#279,2.75000000000006);
#102=CIRCLE('',#280,2.75000000000006);
#103=CIRCLE('',#282,2.);
#104=CIRCLE('',#283,2.00000000000006);
#105=CIRCLE('',#284,5.);
#106=CIRCLE('',#285,5.00000000000011);
#107=CIRCLE('',#287,2.);
#108=CIRCLE('',#290,2.00000000000006);
#109=CIRCLE('',#293,5.);
#110=CIRCLE('',#296,5.00000000000011);
#111=VERTEX_POINT('',#376);
#112=VERTEX_POINT('',#378);
#113=VERTEX_POINT('',#382);
#114=VERTEX_POINT('',#384);
#115=VERTEX_POINT('',#388);
#116=VERTEX_POINT('',#390);
#117=VERTEX_POINT('',#394);
#118=VERTEX_POINT('',#395);
#119=VERTEX_POINT('',#397);
#120=VERTEX_POINT('',#399);
#121=VERTEX_POINT('',#401);
#122=VERTEX_POINT('',#403);
#123=VERTEX_POINT('',#405);
#124=VERTEX_POINT('',#407);
#125=VERTEX_POINT('',#411);
#126=VERTEX_POINT('',#413);
#127=VERTEX_POINT('',#417);
#128=VERTEX_POINT('',#421);
#129=VERTEX_POINT('',#425);
#130=VERTEX_POINT('',#429);
#131=VERTEX_POINT('',#433);
#132=VERTEX_POINT('',#437);
#133=EDGE_CURVE('',#111,#111,#97,.T.);
#134=EDGE_CURVE('',#111,#112,#59,.T.);
#135=EDGE_CURVE('',#112,#112,#98,.T.);
#136=EDGE_CURVE('',#113,#113,#99,.T.);
#137=EDGE_CURVE('',#113,#114,#60,.T.);
#138=EDGE_CURVE('',#114,#114,#100,.T.);
#139=EDGE_CURVE('',#115,#115,#101,.T.);
#140=EDGE_CURVE('',#115,#116,#61,.T.);
#141=EDGE_CURVE('',#116,#116,#102,.T.);
#142=EDGE_CURVE('',#117,#118,#62,.T.);
#143=EDGE_CURVE('',#118,#119,#103,.T.);
#144=EDGE_CURVE('',#119,#120,#63,.T.);
#145=EDGE_CURVE('',#120,#121,#104,.T.);
#146=EDGE_CURVE('',#121,#122,#64,.T.);
#147=EDGE_CURVE('',#122,#123,#105,.T.);
#148=EDGE_CURVE('',#123,#124,#65,.T.);
#149=EDGE_CURVE('',#124,#117,#106,.T.);
#150=EDGE_CURVE('',#125,#118,#66,.T.);
#151=EDGE_CURVE('',#126,#125,#107,.T.);
#152=EDGE_CURVE('',#126,#119,#67,.T.);
#153=EDGE_CURVE('',#127,#126,#68,.T.);
#154=EDGE_CURVE('',#127,#120,#69,.T.);
#155=EDGE_CURVE('',#128,#127,#108,.T.);
#156=EDGE_CURVE('',#128,#121,#70,.T.);
#157=EDGE_CURVE('',#129,#128,#71,.T.);
#158=EDGE_CURVE('',#129,#122,#72,.T.);
#159=EDGE_CURVE('',#130,#129,#109,.T.);
#160=EDGE_CURVE('',#130,#123,#73,.T.);
#161=EDGE_CURVE('',#131,#130,#74,.T.);
#162=EDGE_CURVE('',#131,#124,#75,.T.);
#163=EDGE_CURVE('',#132,#131,#110,.T.);
#164=EDGE_CURVE('',#117,#132,#76,.T.);
#165=EDGE_CURVE('',#125,#132,#77,.T.);
#166=ORIENTED_EDGE('',*,*,#133,.F.);
#167=ORIENTED_EDGE('',*,*,#134,.T.);
#168=ORIENTED_EDGE('',*,*,#135,.F.);
#169=ORIENTED_EDGE('',*,*,#134,.F.);
#170=ORIENTED_EDGE('',*,*,#136,.F.);
#171=ORIENTED_EDGE('',*,*,#137,.T.);
#172=ORIENTED_EDGE('',*,*,#138,.F.);
#173=ORIENTED_EDGE('',*,*,#137,.F.);
#174=ORIENTED_EDGE('',*,*,#139,.F.);
#175=ORIENTED_EDGE('',*,*,#140,.T.);
#176=ORIENTED_EDGE('',*,*,#141,.F.);
#177=ORIENTED_EDGE('',*,*,#140,.F.);
#178=ORIENTED_EDGE('',*,*,#142,.T.);
#179=ORIENTED_EDGE('',*,*,#143,.T.);
#180=ORIENTED_EDGE('',*,*,#144,.T.);
#181=ORIENTED_EDGE('',*,*,#145,.T.);
#182=ORIENTED_EDGE('',*,*,#146,.T.);
#183=ORIENTED_EDGE('',*,*,#147,.T.);
#184=ORIENTED_EDGE('',*,*,#148,.T.);
#185=ORIENTED_EDGE('',*,*,#149,.T.);
#186=ORIENTED_EDGE('',*,*,#133,.T.);
#187=ORIENTED_EDGE('',*,*,#136,.T.);
#188=ORIENTED_EDGE('',*,*,#139,.T.);
#189=ORIENTED_EDGE('',*,*,#150,.F.);
#190=ORIENTED_EDGE('',*,*,#151,.F.);
#191=ORIENTED_EDGE('',*,*,#152,.T.);
#192=ORIENTED_EDGE('',*,*,#143,.F.);
#193=ORIENTED_EDGE('',*,*,#152,.F.);
#194=ORIENTED_EDGE('',*,*,#153,.F.);
#195=ORIENTED_EDGE('',*,*,#154,.T.);
#196=ORIENTED_EDGE('',*,*,#144,.F.);
#197=ORIENTED_EDGE('',*,*,#154,.F.);
#198=ORIENTED_EDGE('',*,*,#155,.F.);
#199=ORIENTED_EDGE('',*,*,#156,.T.);
#200=ORIENTED_EDGE('',*,*,#145,.F.);
#201=ORIENTED_EDGE('',*,*,#156,.F.);
#202=ORIENTED_EDGE('',*,*,#157,.F.);
#203=ORIENTED_EDGE('',*,*,#158,.T.);
#204=ORIENTED_EDGE('',*,*,#146,.F.);
#205=ORIENTED_EDGE('',*,*,#158,.F.);
#206=ORIENTED_EDGE('',*,*,#159,.F.);
#207=ORIENTED_EDGE('',*,*,#160,.T.);
#208=ORIENTED_EDGE('',*,*,#147,.F.);
#209=ORIENTED_EDGE('',*,*,#160,.F.);
#210=ORIENTED_EDGE('',*,*,#161,.F.);
#211=ORIENTED_EDGE('',*,*,#162,.T.);
#212=ORIENTED_EDGE('',*,*,#148,.F.);
#213=ORIENTED_EDGE('',*,*,#162,.F.);
#214=ORIENTED_EDGE('',*,*,#163,.F.);
#215=ORIENTED_EDGE('',*,*,#164,.F.);
#216=ORIENTED_EDGE('',*,*,#149,.F.);
#217=ORIENTED_EDGE('',*,*,#164,.T.);
#218=ORIENTED_EDGE('',*,*,#165,.F.);
#219=ORIENTED_EDGE('',*,*,#150,.T.);
#220=ORIENTED_EDGE('',*,*,#142,.F.);
#221=ORIENTED_EDGE('',*,*,#165,.T.);
#222=ORIENTED_EDGE('',*,*,#163,.T.);
#223=ORIENTED_EDGE('',*,*,#161,.T.);
#224=ORIENTED_EDGE('',*,*,#159,.T.);
#225=ORIENTED_EDGE('',*,*,#157,.T.);
#226=ORIENTED_EDGE('',*,*,#155,.T.);
#227=ORIENTED_EDGE('',*,*,#153,.T.);
#228=ORIENTED_EDGE('',*,*,#151,.T.);
#229=ORIENTED_EDGE('',*,*,#135,.T.);
#230=ORIENTED_EDGE('',*,*,#138,.T.);
#231=ORIENTED_EDGE('',*,*,#141,.T.);
#232=CYLINDRICAL_SURFACE('',#272,2.75);
#233=CYLINDRICAL_SURFACE('',#275,2.75000000000006);
#234=CYLINDRICAL_SURFACE('',#278,2.75000000000006);
#235=CYLINDRICAL_SURFACE('',#286,2.);
#236=CYLINDRICAL_SURFACE('',#289,2.00000000000006);
#237=CYLINDRICAL_SURFACE('',#292,5.);
#238=CYLINDRICAL_SURFACE('',#295,5.00000000000011);
#239=ADVANCED_FACE('',(#27),#232,.F.);
#240=ADVANCED_FACE('',(#28),#233,.F.);
#241=ADVANCED_FACE('',(#29),#234,.F.);
#242=ADVANCED_FACE('',(#30,#15,#16,#17),#21,.F.);
#243=ADVANCED_FACE('',(#31),#235,.T.);
#244=ADVANCED_FACE('',(#32),#22,.T.);
#245=ADVANCED_FACE('',(#33),#236,.T.);
#246=ADVANCED_FACE('',(#34),#23,.T.);
#247=ADVANCED_FACE('',(#35),#237,.T.);
#248=ADVANCED_FACE('',(#36),#24,.T.);
#249=ADVANCED_FACE('',(#37),#238,.T.);
#250=ADVANCED_FACE('',(#38),#25,.T.);
#251=ADVANCED_FACE('',(#39,#18,#19,#20),#26,.T.);
#252=CLOSED_SHELL('',(#239,#240,#241,#242,#243,#244,#245,#246,#247,#248,
#249,#250,#251));
#253=DERIVED_UNIT_ELEMENT(#255,1.);
#254=DERIVED_UNIT_ELEMENT(#448,-3.);
#255=(
MASS_UNIT()
NAMED_UNIT(*)
SI_UNIT($,.GRAM.)
);
#256=DERIVED_UNIT((#253,#254));
#257=MEASURE_REPRESENTATION_ITEM('density measure',
POSITIVE_RATIO_MEASURE(8.),#256);
#258=PROPERTY_DEFINITION_REPRESENTATION(#263,#260);
#259=PROPERTY_DEFINITION_REPRESENTATION(#264,#261);
#260=REPRESENTATION('material name',(#262),#445);
#261=REPRESENTATION('density',(#257),#445);
#262=DESCRIPTIVE_REPRESENTATION_ITEM('Acciaio inossidabile',
'Acciaio inossidabile');
#263=PROPERTY_DEFINITION('material property','material name',#455);
#264=PROPERTY_DEFINITION('material property','density of part',#455);
#265=DATE_TIME_ROLE('creation_date');
#266=APPLIED_DATE_AND_TIME_ASSIGNMENT(#267,#265,(#455));
#267=DATE_AND_TIME(#268,#269);
#268=CALENDAR_DATE(2019,28,2);
#269=LOCAL_TIME(0,0,0.,#270);
#270=COORDINATED_UNIVERSAL_TIME_OFFSET(0,0,.BEHIND.);
#271=AXIS2_PLACEMENT_3D('placement',#374,#299,#300);
#272=AXIS2_PLACEMENT_3D('',#375,#301,#302);
#273=AXIS2_PLACEMENT_3D('',#377,#303,#304);
#274=AXIS2_PLACEMENT_3D('',#380,#306,#307);
#275=AXIS2_PLACEMENT_3D('',#381,#308,#309);
#276=AXIS2_PLACEMENT_3D('',#383,#310,#311);
#277=AXIS2_PLACEMENT_3D('',#386,#313,#314);
#278=AXIS2_PLACEMENT_3D('',#387,#315,#316);
#279=AXIS2_PLACEMENT_3D('',#389,#317,#318);
#280=AXIS2_PLACEMENT_3D('',#392,#320,#321);
#281=AXIS2_PLACEMENT_3D('',#393,#322,#323);
#282=AXIS2_PLACEMENT_3D('',#398,#325,#326);
#283=AXIS2_PLACEMENT_3D('',#402,#328,#329);
#284=AXIS2_PLACEMENT_3D('',#406,#331,#332);
#285=AXIS2_PLACEMENT_3D('',#409,#334,#335);
#286=AXIS2_PLACEMENT_3D('',#410,#336,#337);
#287=AXIS2_PLACEMENT_3D('',#414,#339,#340);
#288=AXIS2_PLACEMENT_3D('',#416,#342,#343);
#289=AXIS2_PLACEMENT_3D('',#420,#346,#347);
#290=AXIS2_PLACEMENT_3D('',#422,#348,#349);
#291=AXIS2_PLACEMENT_3D('',#424,#351,#352);
#292=AXIS2_PLACEMENT_3D('',#428,#355,#356);
#293=AXIS2_PLACEMENT_3D('',#430,#357,#358);
#294=AXIS2_PLACEMENT_3D('',#432,#360,#361);
#295=AXIS2_PLACEMENT_3D('',#436,#364,#365);
#296=AXIS2_PLACEMENT_3D('',#438,#366,#367);
#297=AXIS2_PLACEMENT_3D('',#440,#369,#370);
#298=AXIS2_PLACEMENT_3D('',#442,#372,#373);
#299=DIRECTION('axis',(0.,0.,1.));
#300=DIRECTION('refdir',(1.,0.,0.));
#301=DIRECTION('center_axis',(0.,0.,1.));
#302=DIRECTION('ref_axis',(-1.,0.,0.));
#303=DIRECTION('center_axis',(0.,0.,1.));
#304=DIRECTION('ref_axis',(-1.,0.,0.));
#305=DIRECTION('',(0.,0.,1.));
#306=DIRECTION('center_axis',(0.,0.,-1.));
#307=DIRECTION('ref_axis',(-1.,0.,0.));
#308=DIRECTION('center_axis',(0.,0.,1.));
#309=DIRECTION('ref_axis',(-1.,0.,0.));
#310=DIRECTION('center_axis',(0.,0.,1.));
#311=DIRECTION('ref_axis',(-1.,0.,0.));
#312=DIRECTION('',(0.,0.,1.));
#313=DIRECTION('center_axis',(0.,0.,-1.));
#314=DIRECTION('ref_axis',(-1.,0.,0.));
#315=DIRECTION('center_axis',(0.,0.,1.));
#316=DIRECTION('ref_axis',(-1.,0.,0.));
#317=DIRECTION('center_axis',(0.,0.,1.));
#318=DIRECTION('ref_axis',(-1.,0.,0.));
#319=DIRECTION('',(0.,0.,1.));
#320=DIRECTION('center_axis',(0.,0.,-1.));
#321=DIRECTION('ref_axis',(-1.,0.,0.));
#322=DIRECTION('center_axis',(0.,0.,1.));
#323=DIRECTION('ref_axis',(1.,0.,0.));
#324=DIRECTION('',(0.,-1.,0.));
#325=DIRECTION('center_axis',(0.,0.,-1.));
#326=DIRECTION('ref_axis',(0.,1.,0.));
#327=DIRECTION('',(-1.,1.63611814155239E-15,0.));
#328=DIRECTION('center_axis',(0.,0.,-1.));
#329=DIRECTION('ref_axis',(1.,-2.06723527185216E-12,0.));
#330=DIRECTION('',(0.,1.,0.));
#331=DIRECTION('center_axis',(0.,0.,-1.));
#332=DIRECTION('ref_axis',(0.,-1.,0.));
#333=DIRECTION('',(1.,2.53765262771488E-15,0.));
#334=DIRECTION('center_axis',(0.,0.,-1.));
#335=DIRECTION('ref_axis',(-1.,3.55271367880042E-15,0.));
#336=DIRECTION('center_axis',(0.,0.,1.));
#337=DIRECTION('ref_axis',(0.,1.,0.));
#338=DIRECTION('',(0.,0.,-1.));
#339=DIRECTION('center_axis',(0.,0.,1.));
#340=DIRECTION('ref_axis',(0.,1.,0.));
#341=DIRECTION('',(0.,0.,-1.));
#342=DIRECTION('center_axis',(-1.63611814155239E-15,-1.,0.));
#343=DIRECTION('ref_axis',(1.,-1.63611814155239E-15,0.));
#344=DIRECTION('',(1.,-1.63611814155239E-15,0.));
#345=DIRECTION('',(0.,0.,-1.));
#346=DIRECTION('center_axis',(0.,0.,1.));
#347=DIRECTION('ref_axis',(1.,-2.06723527185216E-12,0.));
#348=DIRECTION('center_axis',(0.,0.,1.));
#349=DIRECTION('ref_axis',(1.,-2.06723527185216E-12,0.));
#350=DIRECTION('',(0.,0.,-1.));
#351=DIRECTION('center_axis',(-1.,0.,0.));
#352=DIRECTION('ref_axis',(0.,-1.,0.));
#353=DIRECTION('',(0.,-1.,0.));
#354=DIRECTION('',(0.,0.,-1.));
#355=DIRECTION('center_axis',(0.,0.,1.));
#356=DIRECTION('ref_axis',(0.,-1.,0.));
#357=DIRECTION('center_axis',(0.,0.,1.));
#358=DIRECTION('ref_axis',(0.,-1.,0.));
#359=DIRECTION('',(0.,0.,-1.));
#360=DIRECTION('center_axis',(-2.53765262771488E-15,1.,0.));
#361=DIRECTION('ref_axis',(-1.,-2.53765262771488E-15,0.));
#362=DIRECTION('',(-1.,-2.53765262771488E-15,0.));
#363=DIRECTION('',(0.,0.,-1.));
#364=DIRECTION('center_axis',(0.,0.,1.));
#365=DIRECTION('ref_axis',(-1.,3.55271367880042E-15,0.));
#366=DIRECTION('center_axis',(0.,0.,1.));
#367=DIRECTION('ref_axis',(-1.,3.55271367880042E-15,0.));
#368=DIRECTION('',(0.,0.,1.));
#369=DIRECTION('center_axis',(1.,0.,0.));
#370=DIRECTION('ref_axis',(0.,1.,0.));
#371=DIRECTION('',(0.,1.,0.));
#372=DIRECTION('center_axis',(0.,0.,1.));
#373=DIRECTION('ref_axis',(1.,0.,0.));
#374=CARTESIAN_POINT('',(0.,0.,0.));
#375=CARTESIAN_POINT('Origin',(36.0000000000095,-34.4999999999964,0.));
#376=CARTESIAN_POINT('',(38.7500000000095,-34.4999999999964,-1.));
#377=CARTESIAN_POINT('Origin',(36.0000000000095,-34.4999999999964,-1.));
#378=CARTESIAN_POINT('',(38.7500000000095,-34.4999999999964,1.));
#379=CARTESIAN_POINT('',(38.7500000000095,-34.4999999999964,0.));
#380=CARTESIAN_POINT('Origin',(36.0000000000095,-34.4999999999964,1.));
#381=CARTESIAN_POINT('Origin',(-2.67341704329738E-11,36.4999999999962,0.));
#382=CARTESIAN_POINT('',(2.74999999997332,36.4999999999962,-1.));
#383=CARTESIAN_POINT('Origin',(-2.67341704329738E-11,36.4999999999962,-1.));
#384=CARTESIAN_POINT('',(2.74999999997332,36.4999999999962,1.));
#385=CARTESIAN_POINT('',(2.74999999997332,36.4999999999962,0.));
#386=CARTESIAN_POINT('Origin',(-2.67341704329738E-11,36.4999999999962,1.));
#387=CARTESIAN_POINT('Origin',(-35.9999999999659,-34.4999999999964,0.));
#388=CARTESIAN_POINT('',(-33.2499999999658,-34.4999999999964,-1.));
#389=CARTESIAN_POINT('Origin',(-35.9999999999659,-34.4999999999964,-1.));
#390=CARTESIAN_POINT('',(-33.2499999999658,-34.4999999999964,1.));
#391=CARTESIAN_POINT('',(-33.2499999999658,-34.4999999999964,0.));
#392=CARTESIAN_POINT('Origin',(-35.9999999999659,-34.4999999999964,1.));
#393=CARTESIAN_POINT('Origin',(-8.36517967993011E-13,0.870369824831879,
-1.));
#394=CARTESIAN_POINT('',(39.9999999999968,36.4999999999962,-1.));
#395=CARTESIAN_POINT('',(39.9999999999968,-36.4999999999964,-1.));
#396=CARTESIAN_POINT('',(39.9999999999968,36.4999999999962,-1.));
#397=CARTESIAN_POINT('',(37.9999999999968,-38.5000000000004,-1.));
#398=CARTESIAN_POINT('Origin',(37.9999999999968,-36.5000000000004,-1.));
#399=CARTESIAN_POINT('',(-38.000000000025,-38.5000000000003,-1.));
#400=CARTESIAN_POINT('',(37.9999999999968,-38.5000000000004,-1.));
#401=CARTESIAN_POINT('',(-39.9999999999967,-36.4999999999962,-1.));
#402=CARTESIAN_POINT('Origin',(-37.9999999999968,-36.5000000000004,-1.));
#403=CARTESIAN_POINT('',(-39.9999999999967,36.4999999999961,-1.));
#404=CARTESIAN_POINT('',(-39.9999999999967,-36.4999999999962,-1.));
#405=CARTESIAN_POINT('',(-34.9999999999968,41.4999999999962,-1.));
#406=CARTESIAN_POINT('Origin',(-34.9999999999968,36.4999999999964,-1.));
#407=CARTESIAN_POINT('',(34.9999999999968,41.4999999999964,-1.));
#408=CARTESIAN_POINT('',(-34.9999999999968,41.4999999999962,-1.));
#409=CARTESIAN_POINT('Origin',(34.9999999999967,36.4999999999963,-1.));
#410=CARTESIAN_POINT('Origin',(37.9999999999968,-36.5000000000004,0.));
#411=CARTESIAN_POINT('',(39.9999999999968,-36.4999999999964,1.));
#412=CARTESIAN_POINT('',(39.9999999999968,-36.4999999999964,0.));
#413=CARTESIAN_POINT('',(37.9999999999968,-38.5000000000004,1.));
#414=CARTESIAN_POINT('Origin',(37.9999999999968,-36.5000000000004,1.));
#415=CARTESIAN_POINT('',(37.9999999999968,-38.5000000000004,0.));
#416=CARTESIAN_POINT('Origin',(-38.000000000025,-38.5000000000003,0.));
#417=CARTESIAN_POINT('',(-38.000000000025,-38.5000000000003,1.));
#418=CARTESIAN_POINT('',(37.9999999999968,-38.5000000000004,1.));
#419=CARTESIAN_POINT('',(-38.000000000025,-38.5000000000003,0.));
#420=CARTESIAN_POINT('Origin',(-37.9999999999968,-36.5000000000004,0.));
#421=CARTESIAN_POINT('',(-39.9999999999967,-36.4999999999962,1.));
#422=CARTESIAN_POINT('Origin',(-37.9999999999968,-36.5000000000004,1.));
#423=CARTESIAN_POINT('',(-39.9999999999967,-36.4999999999962,0.));
#424=CARTESIAN_POINT('Origin',(-39.9999999999967,36.4999999999961,0.));
#425=CARTESIAN_POINT('',(-39.9999999999967,36.4999999999961,1.));
#426=CARTESIAN_POINT('',(-39.9999999999967,-36.4999999999962,1.));
#427=CARTESIAN_POINT('',(-39.9999999999967,36.4999999999961,0.));
#428=CARTESIAN_POINT('Origin',(-34.9999999999968,36.4999999999964,0.));
#429=CARTESIAN_POINT('',(-34.9999999999968,41.4999999999962,1.));
#430=CARTESIAN_POINT('Origin',(-34.9999999999968,36.4999999999964,1.));
#431=CARTESIAN_POINT('',(-34.9999999999968,41.4999999999962,0.));
#432=CARTESIAN_POINT('Origin',(34.9999999999968,41.4999999999964,0.));
#433=CARTESIAN_POINT('',(34.9999999999968,41.4999999999964,1.));
#434=CARTESIAN_POINT('',(-34.9999999999968,41.4999999999962,1.));
#435=CARTESIAN_POINT('',(34.9999999999968,41.4999999999964,0.));
#436=CARTESIAN_POINT('Origin',(34.9999999999967,36.4999999999963,0.));
#437=CARTESIAN_POINT('',(39.9999999999968,36.4999999999962,1.));
#438=CARTESIAN_POINT('Origin',(34.9999999999967,36.4999999999963,1.));
#439=CARTESIAN_POINT('',(39.9999999999968,36.4999999999962,0.));
#440=CARTESIAN_POINT('Origin',(39.9999999999968,-36.4999999999964,0.));
#441=CARTESIAN_POINT('',(39.9999999999968,36.4999999999962,1.));
#442=CARTESIAN_POINT('Origin',(-8.36517967993011E-13,0.870369824831879,
1.));
#443=UNCERTAINTY_MEASURE_WITH_UNIT(LENGTH_MEASURE(0.01),#447,
'DISTANCE_ACCURACY_VALUE',
'Maximum model space distance between geometric entities at asserted c
onnectivities');
#444=UNCERTAINTY_MEASURE_WITH_UNIT(LENGTH_MEASURE(0.01),#447,
'DISTANCE_ACCURACY_VALUE',
'Maximum model space distance between geometric entities at asserted c
onnectivities');
#445=(
GEOMETRIC_REPRESENTATION_CONTEXT(3)
GLOBAL_UNCERTAINTY_ASSIGNED_CONTEXT((#443))
GLOBAL_UNIT_ASSIGNED_CONTEXT((#447,#449,#450))
REPRESENTATION_CONTEXT('','3D')
);
#446=(
GEOMETRIC_REPRESENTATION_CONTEXT(3)
GLOBAL_UNCERTAINTY_ASSIGNED_CONTEXT((#444))
GLOBAL_UNIT_ASSIGNED_CONTEXT((#447,#449,#450))
REPRESENTATION_CONTEXT('','3D')
);
#447=(
LENGTH_UNIT()
NAMED_UNIT(*)
SI_UNIT(.MILLI.,.METRE.)
);
#448=(
LENGTH_UNIT()
NAMED_UNIT(*)
SI_UNIT(.CENTI.,.METRE.)
);
#449=(
NAMED_UNIT(*)
PLANE_ANGLE_UNIT()
SI_UNIT($,.RADIAN.)
);
#450=(
NAMED_UNIT(*)
SI_UNIT($,.STERADIAN.)
SOLID_ANGLE_UNIT()
);
#451=SHAPE_DEFINITION_REPRESENTATION(#452,#453);
#452=PRODUCT_DEFINITION_SHAPE('',$,#455);
#453=SHAPE_REPRESENTATION('',(#271),#445);
#454=PRODUCT_DEFINITION_CONTEXT('part definition',#459,'design');
#455=PRODUCT_DEFINITION('CE80-01','CE80-01',#456,#454);
#456=PRODUCT_DEFINITION_FORMATION('A00',$,#461);
#457=PRODUCT_RELATED_PRODUCT_CATEGORY('CE80-01','CE80-01',(#461));
#458=APPLICATION_PROTOCOL_DEFINITION('international standard',
'automotive_design',2009,#459);
#459=APPLICATION_CONTEXT(
'Core Data for Automotive Mechanical Design Process');
#460=PRODUCT_CONTEXT('part definition',#459,'mechanical');
#461=PRODUCT('CE80-01','CE80-01',
'Tappo acciaio inossidabile profilo canalina portacavi 80x80',(#460));
#462=PRESENTATION_STYLE_ASSIGNMENT((#463));
#463=SURFACE_STYLE_USAGE(.BOTH.,#466);
#464=SURFACE_STYLE_RENDERING_WITH_PROPERTIES($,#470,(#465));
#465=SURFACE_STYLE_TRANSPARENT(0.);
#466=SURFACE_SIDE_STYLE('',(#467,#464));
#467=SURFACE_STYLE_FILL_AREA(#468);
#468=FILL_AREA_STYLE('',(#469));
#469=FILL_AREA_STYLE_COLOUR('',#470);
#470=COLOUR_RGB('',0.745098039215686,0.737254901960784,0.729411764705882);
ENDSEC;
END-ISO-10303-21;
