ISO-10303-21;
HEADER;
/* Generated by software containing ST-Developer
 * from STEP Tools, Inc. (www.steptools.com) 
 */

FILE_DESCRIPTION(
/* description */ (
'Tappo acciaio inossidabile profilo canalina portacavi 60x120'),
/* implementation_level */ '2;1');

FILE_NAME(
/* name */ 'C:\\Users\\Stefan.Nesic\\Desktop\\01010STEP\\CE60-02.stp',
/* time_stamp */ '2022-06-17T14:58:58+02:00',
/* author */ ('Davide'),
/* organization */ (''),
/* preprocessor_version */ 'ST-DEVELOPER v18.1',
/* originating_system */ 'Autodesk Inventor 2021',
/* authorisation */ '');

FILE_SCHEMA (('AUTOMOTIVE_DESIGN { 1 0 10303 214 3 1 1 }'));
ENDSEC;

DATA;
#10=MECHANICAL_DESIGN_GEOMETRIC_PRESENTATION_REPRESENTATION('',(#13),#485);
#11=SHAPE_REPRESENTATION_RELATIONSHIP('SRR','None',#492,#12);
#12=ADVANCED_BREP_SHAPE_REPRESENTATION('',(#14),#484);
#13=STYLED_ITEM('',(#501),#14);
#14=MANIFOLD_SOLID_BREP('Solido1',#275);
#15=FACE_BOUND('',#48,.T.);
#16=FACE_BOUND('',#49,.T.);
#17=FACE_BOUND('',#50,.T.);
#18=FACE_BOUND('',#51,.T.);
#19=FACE_BOUND('',#61,.T.);
#20=FACE_BOUND('',#62,.T.);
#21=FACE_BOUND('',#63,.T.);
#22=FACE_BOUND('',#64,.T.);
#23=PLANE('',#307);
#24=PLANE('',#314);
#25=PLANE('',#317);
#26=PLANE('',#320);
#27=PLANE('',#323);
#28=PLANE('',#324);
#29=FACE_OUTER_BOUND('',#43,.T.);
#30=FACE_OUTER_BOUND('',#44,.T.);
#31=FACE_OUTER_BOUND('',#45,.T.);
#32=FACE_OUTER_BOUND('',#46,.T.);
#33=FACE_OUTER_BOUND('',#47,.T.);
#34=FACE_OUTER_BOUND('',#52,.T.);
#35=FACE_OUTER_BOUND('',#53,.T.);
#36=FACE_OUTER_BOUND('',#54,.T.);
#37=FACE_OUTER_BOUND('',#55,.T.);
#38=FACE_OUTER_BOUND('',#56,.T.);
#39=FACE_OUTER_BOUND('',#57,.T.);
#40=FACE_OUTER_BOUND('',#58,.T.);
#41=FACE_OUTER_BOUND('',#59,.T.);
#42=FACE_OUTER_BOUND('',#60,.T.);
#43=EDGE_LOOP('',(#181,#182,#183,#184));
#44=EDGE_LOOP('',(#185,#186,#187,#188));
#45=EDGE_LOOP('',(#189,#190,#191,#192));
#46=EDGE_LOOP('',(#193,#194,#195,#196));
#47=EDGE_LOOP('',(#197,#198,#199,#200,#201,#202,#203,#204));
#48=EDGE_LOOP('',(#205));
#49=EDGE_LOOP('',(#206));
#50=EDGE_LOOP('',(#207));
#51=EDGE_LOOP('',(#208));
#52=EDGE_LOOP('',(#209,#210,#211,#212));
#53=EDGE_LOOP('',(#213,#214,#215,#216));
#54=EDGE_LOOP('',(#217,#218,#219,#220));
#55=EDGE_LOOP('',(#221,#222,#223,#224));
#56=EDGE_LOOP('',(#225,#226,#227,#228));
#57=EDGE_LOOP('',(#229,#230,#231,#232));
#58=EDGE_LOOP('',(#233,#234,#235,#236));
#59=EDGE_LOOP('',(#237,#238,#239,#240));
#60=EDGE_LOOP('',(#241,#242,#243,#244,#245,#246,#247,#248));
#61=EDGE_LOOP('',(#249));
#62=EDGE_LOOP('',(#250));
#63=EDGE_LOOP('',(#251));
#64=EDGE_LOOP('',(#252));
#65=LINE('',#412,#85);
#66=LINE('',#418,#86);
#67=LINE('',#424,#87);
#68=LINE('',#430,#88);
#69=LINE('',#435,#89);
#70=LINE('',#439,#90);
#71=LINE('',#443,#91);
#72=LINE('',#447,#92);
#73=LINE('',#451,#93);
#74=LINE('',#454,#94);
#75=LINE('',#457,#95);
#76=LINE('',#458,#96);
#77=LINE('',#462,#97);
#78=LINE('',#465,#98);
#79=LINE('',#466,#99);
#80=LINE('',#470,#100);
#81=LINE('',#473,#101);
#82=LINE('',#474,#102);
#83=LINE('',#478,#103);
#84=LINE('',#480,#104);
#85=VECTOR('',#331,2.75000000000006);
#86=VECTOR('',#338,2.75000000000006);
#87=VECTOR('',#345,2.75000000000006);
#88=VECTOR('',#352,2.75);
#89=VECTOR('',#357,10.);
#90=VECTOR('',#360,10.);
#91=VECTOR('',#363,10.);
#92=VECTOR('',#366,10.);
#93=VECTOR('',#371,10.);
#94=VECTOR('',#374,10.);
#95=VECTOR('',#377,10.);
#96=VECTOR('',#378,10.);
#97=VECTOR('',#383,10.);
#98=VECTOR('',#386,10.);
#99=VECTOR('',#387,10.);
#100=VECTOR('',#392,10.);
#101=VECTOR('',#395,10.);
#102=VECTOR('',#396,10.);
#103=VECTOR('',#401,10.);
#104=VECTOR('',#404,10.);
#105=CIRCLE('',#296,2.75000000000006);
#106=CIRCLE('',#297,2.75000000000006);
#107=CIRCLE('',#299,2.75000000000006);
#108=CIRCLE('',#300,2.75000000000006);
#109=CIRCLE('',#302,2.75000000000006);
#110=CIRCLE('',#303,2.75000000000006);
#111=CIRCLE('',#305,2.75);
#112=CIRCLE('',#306,2.75);
#113=CIRCLE('',#308,4.99999999999994);
#114=CIRCLE('',#309,2.00000000000011);
#115=CIRCLE('',#310,2.);
#116=CIRCLE('',#311,5.00000000000006);
#117=CIRCLE('',#313,4.99999999999994);
#118=CIRCLE('',#316,2.00000000000011);
#119=CIRCLE('',#319,2.);
#120=CIRCLE('',#322,5.00000000000006);
#121=VERTEX_POINT('',#409);
#122=VERTEX_POINT('',#411);
#123=VERTEX_POINT('',#415);
#124=VERTEX_POINT('',#417);
#125=VERTEX_POINT('',#421);
#126=VERTEX_POINT('',#423);
#127=VERTEX_POINT('',#427);
#128=VERTEX_POINT('',#429);
#129=VERTEX_POINT('',#433);
#130=VERTEX_POINT('',#434);
#131=VERTEX_POINT('',#436);
#132=VERTEX_POINT('',#438);
#133=VERTEX_POINT('',#440);
#134=VERTEX_POINT('',#442);
#135=VERTEX_POINT('',#444);
#136=VERTEX_POINT('',#446);
#137=VERTEX_POINT('',#450);
#138=VERTEX_POINT('',#452);
#139=VERTEX_POINT('',#456);
#140=VERTEX_POINT('',#460);
#141=VERTEX_POINT('',#464);
#142=VERTEX_POINT('',#468);
#143=VERTEX_POINT('',#472);
#144=VERTEX_POINT('',#476);
#145=EDGE_CURVE('',#121,#121,#105,.T.);
#146=EDGE_CURVE('',#121,#122,#65,.T.);
#147=EDGE_CURVE('',#122,#122,#106,.T.);
#148=EDGE_CURVE('',#123,#123,#107,.T.);
#149=EDGE_CURVE('',#123,#124,#66,.T.);
#150=EDGE_CURVE('',#124,#124,#108,.T.);
#151=EDGE_CURVE('',#125,#125,#109,.T.);
#152=EDGE_CURVE('',#125,#126,#67,.T.);
#153=EDGE_CURVE('',#126,#126,#110,.T.);
#154=EDGE_CURVE('',#127,#127,#111,.T.);
#155=EDGE_CURVE('',#127,#128,#68,.T.);
#156=EDGE_CURVE('',#128,#128,#112,.T.);
#157=EDGE_CURVE('',#129,#130,#69,.T.);
#158=EDGE_CURVE('',#130,#131,#113,.T.);
#159=EDGE_CURVE('',#131,#132,#70,.T.);
#160=EDGE_CURVE('',#132,#133,#114,.T.);
#161=EDGE_CURVE('',#133,#134,#71,.T.);
#162=EDGE_CURVE('',#134,#135,#115,.T.);
#163=EDGE_CURVE('',#135,#136,#72,.T.);
#164=EDGE_CURVE('',#136,#129,#116,.T.);
#165=EDGE_CURVE('',#137,#130,#73,.T.);
#166=EDGE_CURVE('',#138,#137,#117,.T.);
#167=EDGE_CURVE('',#131,#138,#74,.T.);
#168=EDGE_CURVE('',#139,#138,#75,.T.);
#169=EDGE_CURVE('',#132,#139,#76,.T.);
#170=EDGE_CURVE('',#140,#139,#118,.T.);
#171=EDGE_CURVE('',#133,#140,#77,.T.);
#172=EDGE_CURVE('',#141,#140,#78,.T.);
#173=EDGE_CURVE('',#134,#141,#79,.T.);
#174=EDGE_CURVE('',#142,#141,#119,.T.);
#175=EDGE_CURVE('',#135,#142,#80,.T.);
#176=EDGE_CURVE('',#143,#142,#81,.T.);
#177=EDGE_CURVE('',#136,#143,#82,.T.);
#178=EDGE_CURVE('',#144,#143,#120,.T.);
#179=EDGE_CURVE('',#129,#144,#83,.T.);
#180=EDGE_CURVE('',#137,#144,#84,.T.);
#181=ORIENTED_EDGE('',*,*,#145,.F.);
#182=ORIENTED_EDGE('',*,*,#146,.T.);
#183=ORIENTED_EDGE('',*,*,#147,.F.);
#184=ORIENTED_EDGE('',*,*,#146,.F.);
#185=ORIENTED_EDGE('',*,*,#148,.F.);
#186=ORIENTED_EDGE('',*,*,#149,.T.);
#187=ORIENTED_EDGE('',*,*,#150,.F.);
#188=ORIENTED_EDGE('',*,*,#149,.F.);
#189=ORIENTED_EDGE('',*,*,#151,.F.);
#190=ORIENTED_EDGE('',*,*,#152,.T.);
#191=ORIENTED_EDGE('',*,*,#153,.F.);
#192=ORIENTED_EDGE('',*,*,#152,.F.);
#193=ORIENTED_EDGE('',*,*,#154,.F.);
#194=ORIENTED_EDGE('',*,*,#155,.T.);
#195=ORIENTED_EDGE('',*,*,#156,.F.);
#196=ORIENTED_EDGE('',*,*,#155,.F.);
#197=ORIENTED_EDGE('',*,*,#157,.T.);
#198=ORIENTED_EDGE('',*,*,#158,.T.);
#199=ORIENTED_EDGE('',*,*,#159,.T.);
#200=ORIENTED_EDGE('',*,*,#160,.T.);
#201=ORIENTED_EDGE('',*,*,#161,.T.);
#202=ORIENTED_EDGE('',*,*,#162,.T.);
#203=ORIENTED_EDGE('',*,*,#163,.T.);
#204=ORIENTED_EDGE('',*,*,#164,.T.);
#205=ORIENTED_EDGE('',*,*,#145,.T.);
#206=ORIENTED_EDGE('',*,*,#148,.T.);
#207=ORIENTED_EDGE('',*,*,#151,.T.);
#208=ORIENTED_EDGE('',*,*,#154,.T.);
#209=ORIENTED_EDGE('',*,*,#165,.F.);
#210=ORIENTED_EDGE('',*,*,#166,.F.);
#211=ORIENTED_EDGE('',*,*,#167,.F.);
#212=ORIENTED_EDGE('',*,*,#158,.F.);
#213=ORIENTED_EDGE('',*,*,#167,.T.);
#214=ORIENTED_EDGE('',*,*,#168,.F.);
#215=ORIENTED_EDGE('',*,*,#169,.F.);
#216=ORIENTED_EDGE('',*,*,#159,.F.);
#217=ORIENTED_EDGE('',*,*,#169,.T.);
#218=ORIENTED_EDGE('',*,*,#170,.F.);
#219=ORIENTED_EDGE('',*,*,#171,.F.);
#220=ORIENTED_EDGE('',*,*,#160,.F.);
#221=ORIENTED_EDGE('',*,*,#171,.T.);
#222=ORIENTED_EDGE('',*,*,#172,.F.);
#223=ORIENTED_EDGE('',*,*,#173,.F.);
#224=ORIENTED_EDGE('',*,*,#161,.F.);
#225=ORIENTED_EDGE('',*,*,#173,.T.);
#226=ORIENTED_EDGE('',*,*,#174,.F.);
#227=ORIENTED_EDGE('',*,*,#175,.F.);
#228=ORIENTED_EDGE('',*,*,#162,.F.);
#229=ORIENTED_EDGE('',*,*,#175,.T.);
#230=ORIENTED_EDGE('',*,*,#176,.F.);
#231=ORIENTED_EDGE('',*,*,#177,.F.);
#232=ORIENTED_EDGE('',*,*,#163,.F.);
#233=ORIENTED_EDGE('',*,*,#177,.T.);
#234=ORIENTED_EDGE('',*,*,#178,.F.);
#235=ORIENTED_EDGE('',*,*,#179,.F.);
#236=ORIENTED_EDGE('',*,*,#164,.F.);
#237=ORIENTED_EDGE('',*,*,#179,.T.);
#238=ORIENTED_EDGE('',*,*,#180,.F.);
#239=ORIENTED_EDGE('',*,*,#165,.T.);
#240=ORIENTED_EDGE('',*,*,#157,.F.);
#241=ORIENTED_EDGE('',*,*,#180,.T.);
#242=ORIENTED_EDGE('',*,*,#178,.T.);
#243=ORIENTED_EDGE('',*,*,#176,.T.);
#244=ORIENTED_EDGE('',*,*,#174,.T.);
#245=ORIENTED_EDGE('',*,*,#172,.T.);
#246=ORIENTED_EDGE('',*,*,#170,.T.);
#247=ORIENTED_EDGE('',*,*,#168,.T.);
#248=ORIENTED_EDGE('',*,*,#166,.T.);
#249=ORIENTED_EDGE('',*,*,#147,.T.);
#250=ORIENTED_EDGE('',*,*,#150,.T.);
#251=ORIENTED_EDGE('',*,*,#153,.T.);
#252=ORIENTED_EDGE('',*,*,#156,.T.);
#253=CYLINDRICAL_SURFACE('',#295,2.75000000000006);
#254=CYLINDRICAL_SURFACE('',#298,2.75000000000006);
#255=CYLINDRICAL_SURFACE('',#301,2.75000000000006);
#256=CYLINDRICAL_SURFACE('',#304,2.75);
#257=CYLINDRICAL_SURFACE('',#312,4.99999999999994);
#258=CYLINDRICAL_SURFACE('',#315,2.00000000000011);
#259=CYLINDRICAL_SURFACE('',#318,2.);
#260=CYLINDRICAL_SURFACE('',#321,5.00000000000006);
#261=ADVANCED_FACE('',(#29),#253,.F.);
#262=ADVANCED_FACE('',(#30),#254,.F.);
#263=ADVANCED_FACE('',(#31),#255,.F.);
#264=ADVANCED_FACE('',(#32),#256,.F.);
#265=ADVANCED_FACE('',(#33,#15,#16,#17,#18),#23,.F.);
#266=ADVANCED_FACE('',(#34),#257,.T.);
#267=ADVANCED_FACE('',(#35),#24,.T.);
#268=ADVANCED_FACE('',(#36),#258,.T.);
#269=ADVANCED_FACE('',(#37),#25,.T.);
#270=ADVANCED_FACE('',(#38),#259,.T.);
#271=ADVANCED_FACE('',(#39),#26,.T.);
#272=ADVANCED_FACE('',(#40),#260,.T.);
#273=ADVANCED_FACE('',(#41),#27,.T.);
#274=ADVANCED_FACE('',(#42,#19,#20,#21,#22),#28,.T.);
#275=CLOSED_SHELL('',(#261,#262,#263,#264,#265,#266,#267,#268,#269,#270,
#271,#272,#273,#274));
#276=DERIVED_UNIT_ELEMENT(#278,1.);
#277=DERIVED_UNIT_ELEMENT(#487,-3.);
#278=(
MASS_UNIT()
NAMED_UNIT(*)
SI_UNIT($,.GRAM.)
);
#279=DERIVED_UNIT((#276,#277));
#280=MEASURE_REPRESENTATION_ITEM('density measure',
POSITIVE_RATIO_MEASURE(8.),#279);
#281=PROPERTY_DEFINITION_REPRESENTATION(#286,#283);
#282=PROPERTY_DEFINITION_REPRESENTATION(#287,#284);
#283=REPRESENTATION('material name',(#285),#484);
#284=REPRESENTATION('density',(#280),#484);
#285=DESCRIPTIVE_REPRESENTATION_ITEM('Acciaio inossidabile',
'Acciaio inossidabile');
#286=PROPERTY_DEFINITION('material property','material name',#494);
#287=PROPERTY_DEFINITION('material property','density of part',#494);
#288=DATE_TIME_ROLE('creation_date');
#289=APPLIED_DATE_AND_TIME_ASSIGNMENT(#290,#288,(#494));
#290=DATE_AND_TIME(#291,#292);
#291=CALENDAR_DATE(2019,28,2);
#292=LOCAL_TIME(0,0,0.,#293);
#293=COORDINATED_UNIVERSAL_TIME_OFFSET(0,0,.BEHIND.);
#294=AXIS2_PLACEMENT_3D('placement',#407,#325,#326);
#295=AXIS2_PLACEMENT_3D('',#408,#327,#328);
#296=AXIS2_PLACEMENT_3D('',#410,#329,#330);
#297=AXIS2_PLACEMENT_3D('',#413,#332,#333);
#298=AXIS2_PLACEMENT_3D('',#414,#334,#335);
#299=AXIS2_PLACEMENT_3D('',#416,#336,#337);
#300=AXIS2_PLACEMENT_3D('',#419,#339,#340);
#301=AXIS2_PLACEMENT_3D('',#420,#341,#342);
#302=AXIS2_PLACEMENT_3D('',#422,#343,#344);
#303=AXIS2_PLACEMENT_3D('',#425,#346,#347);
#304=AXIS2_PLACEMENT_3D('',#426,#348,#349);
#305=AXIS2_PLACEMENT_3D('',#428,#350,#351);
#306=AXIS2_PLACEMENT_3D('',#431,#353,#354);
#307=AXIS2_PLACEMENT_3D('',#432,#355,#356);
#308=AXIS2_PLACEMENT_3D('',#437,#358,#359);
#309=AXIS2_PLACEMENT_3D('',#441,#361,#362);
#310=AXIS2_PLACEMENT_3D('',#445,#364,#365);
#311=AXIS2_PLACEMENT_3D('',#448,#367,#368);
#312=AXIS2_PLACEMENT_3D('',#449,#369,#370);
#313=AXIS2_PLACEMENT_3D('',#453,#372,#373);
#314=AXIS2_PLACEMENT_3D('',#455,#375,#376);
#315=AXIS2_PLACEMENT_3D('',#459,#379,#380);
#316=AXIS2_PLACEMENT_3D('',#461,#381,#382);
#317=AXIS2_PLACEMENT_3D('',#463,#384,#385);
#318=AXIS2_PLACEMENT_3D('',#467,#388,#389);
#319=AXIS2_PLACEMENT_3D('',#469,#390,#391);
#320=AXIS2_PLACEMENT_3D('',#471,#393,#394);
#321=AXIS2_PLACEMENT_3D('',#475,#397,#398);
#322=AXIS2_PLACEMENT_3D('',#477,#399,#400);
#323=AXIS2_PLACEMENT_3D('',#479,#402,#403);
#324=AXIS2_PLACEMENT_3D('',#481,#405,#406);
#325=DIRECTION('axis',(0.,0.,1.));
#326=DIRECTION('refdir',(1.,0.,0.));
#327=DIRECTION('center_axis',(0.,0.,1.));
#328=DIRECTION('ref_axis',(-1.,0.,0.));
#329=DIRECTION('center_axis',(0.,0.,1.));
#330=DIRECTION('ref_axis',(-1.,0.,0.));
#331=DIRECTION('',(0.,0.,1.));
#332=DIRECTION('center_axis',(0.,0.,-1.));
#333=DIRECTION('ref_axis',(-1.,0.,0.));
#334=DIRECTION('center_axis',(0.,0.,1.));
#335=DIRECTION('ref_axis',(-1.,0.,0.));
#336=DIRECTION('center_axis',(0.,0.,1.));
#337=DIRECTION('ref_axis',(-1.,0.,0.));
#338=DIRECTION('',(0.,0.,1.));
#339=DIRECTION('center_axis',(0.,0.,-1.));
#340=DIRECTION('ref_axis',(-1.,0.,0.));
#341=DIRECTION('center_axis',(0.,0.,1.));
#342=DIRECTION('ref_axis',(-1.,0.,0.));
#343=DIRECTION('center_axis',(0.,0.,1.));
#344=DIRECTION('ref_axis',(-1.,0.,0.));
#345=DIRECTION('',(0.,0.,1.));
#346=DIRECTION('center_axis',(0.,0.,-1.));
#347=DIRECTION('ref_axis',(-1.,0.,0.));
#348=DIRECTION('center_axis',(0.,0.,1.));
#349=DIRECTION('ref_axis',(-1.,0.,0.));
#350=DIRECTION('center_axis',(0.,0.,1.));
#351=DIRECTION('ref_axis',(-1.,0.,0.));
#352=DIRECTION('',(0.,0.,1.));
#353=DIRECTION('center_axis',(0.,0.,-1.));
#354=DIRECTION('ref_axis',(-1.,0.,0.));
#355=DIRECTION('center_axis',(0.,0.,1.));
#356=DIRECTION('ref_axis',(1.,0.,0.));
#357=DIRECTION('',(1.,0.,0.));
#358=DIRECTION('center_axis',(0.,0.,-1.));
#359=DIRECTION('ref_axis',(1.,0.,0.));
#360=DIRECTION('',(-1.50822750515136E-15,-1.,0.));
#361=DIRECTION('center_axis',(0.,0.,-1.));
#362=DIRECTION('ref_axis',(1.41042733048378E-11,-1.,0.));
#363=DIRECTION('',(-1.,0.,0.));
#364=DIRECTION('center_axis',(0.,0.,-1.));
#365=DIRECTION('ref_axis',(-1.,-1.11022302462514E-13,0.));
#366=DIRECTION('',(0.,1.,0.));
#367=DIRECTION('center_axis',(0.,0.,-1.));
#368=DIRECTION('ref_axis',(0.,1.,0.));
#369=DIRECTION('center_axis',(0.,0.,1.));
#370=DIRECTION('ref_axis',(1.,0.,0.));
#371=DIRECTION('',(0.,0.,-1.));
#372=DIRECTION('center_axis',(0.,0.,1.));
#373=DIRECTION('ref_axis',(1.,0.,0.));
#374=DIRECTION('',(0.,0.,1.));
#375=DIRECTION('center_axis',(1.,-1.50822750515136E-15,0.));
#376=DIRECTION('ref_axis',(1.50822750515136E-15,1.,0.));
#377=DIRECTION('',(1.50822750515136E-15,1.,0.));
#378=DIRECTION('',(0.,0.,1.));
#379=DIRECTION('center_axis',(0.,0.,1.));
#380=DIRECTION('ref_axis',(1.41042733048378E-11,-1.,0.));
#381=DIRECTION('center_axis',(0.,0.,1.));
#382=DIRECTION('ref_axis',(1.41042733048378E-11,-1.,0.));
#383=DIRECTION('',(0.,0.,1.));
#384=DIRECTION('center_axis',(0.,-1.,0.));
#385=DIRECTION('ref_axis',(1.,0.,0.));
#386=DIRECTION('',(1.,0.,0.));
#387=DIRECTION('',(0.,0.,1.));
#388=DIRECTION('center_axis',(0.,0.,1.));
#389=DIRECTION('ref_axis',(-1.,-1.11022302462514E-13,0.));
#390=DIRECTION('center_axis',(0.,0.,1.));
#391=DIRECTION('ref_axis',(-1.,-1.11022302462514E-13,0.));
#392=DIRECTION('',(0.,0.,1.));
#393=DIRECTION('center_axis',(-1.,0.,0.));
#394=DIRECTION('ref_axis',(0.,-1.,0.));
#395=DIRECTION('',(0.,-1.,0.));
#396=DIRECTION('',(0.,0.,1.));
#397=DIRECTION('center_axis',(0.,0.,1.));
#398=DIRECTION('ref_axis',(0.,1.,0.));
#399=DIRECTION('center_axis',(0.,0.,1.));
#400=DIRECTION('ref_axis',(0.,1.,0.));
#401=DIRECTION('',(0.,0.,1.));
#402=DIRECTION('center_axis',(0.,1.,0.));
#403=DIRECTION('ref_axis',(-1.,0.,0.));
#404=DIRECTION('',(-1.,0.,0.));
#405=DIRECTION('center_axis',(0.,0.,1.));
#406=DIRECTION('ref_axis',(1.,0.,0.));
#407=CARTESIAN_POINT('',(0.,0.,0.));
#408=CARTESIAN_POINT('Origin',(55.0000000000747,-24.9999999999966,0.));
#409=CARTESIAN_POINT('',(57.7500000000747,-24.9999999999966,-1.));
#410=CARTESIAN_POINT('Origin',(55.0000000000747,-24.9999999999966,-1.));
#411=CARTESIAN_POINT('',(57.7500000000747,-24.9999999999966,1.));
#412=CARTESIAN_POINT('',(57.7500000000747,-24.9999999999966,0.));
#413=CARTESIAN_POINT('Origin',(55.0000000000747,-24.9999999999966,1.));
#414=CARTESIAN_POINT('Origin',(-39.9999999999804,24.9999999999962,0.));
#415=CARTESIAN_POINT('',(-37.2499999999803,24.9999999999962,-1.));
#416=CARTESIAN_POINT('Origin',(-39.9999999999804,24.9999999999962,-1.));
#417=CARTESIAN_POINT('',(-37.2499999999803,24.9999999999962,1.));
#418=CARTESIAN_POINT('',(-37.2499999999803,24.9999999999962,0.));
#419=CARTESIAN_POINT('Origin',(-39.9999999999804,24.9999999999962,1.));
#420=CARTESIAN_POINT('Origin',(40.00000000002,24.9999999999962,0.));
#421=CARTESIAN_POINT('',(42.75000000002,24.9999999999962,-1.));
#422=CARTESIAN_POINT('Origin',(40.00000000002,24.9999999999962,-1.));
#423=CARTESIAN_POINT('',(42.75000000002,24.9999999999962,1.));
#424=CARTESIAN_POINT('',(42.75000000002,24.9999999999962,0.));
#425=CARTESIAN_POINT('Origin',(40.00000000002,24.9999999999962,1.));
#426=CARTESIAN_POINT('Origin',(-55.0000000000171,-24.9999999999966,0.));
#427=CARTESIAN_POINT('',(-52.2500000000171,-24.9999999999966,-1.));
#428=CARTESIAN_POINT('Origin',(-55.0000000000171,-24.9999999999966,-1.));
#429=CARTESIAN_POINT('',(-52.2500000000171,-24.9999999999966,1.));
#430=CARTESIAN_POINT('',(-52.2500000000171,-24.9999999999966,0.));
#431=CARTESIAN_POINT('Origin',(-55.0000000000171,-24.9999999999966,1.));
#432=CARTESIAN_POINT('Origin',(-7.0223501494244E-12,-0.415854589901948,
-1.));
#433=CARTESIAN_POINT('',(-55.0000000000041,29.9999999999963,-1.));
#434=CARTESIAN_POINT('',(54.9999999999901,29.9999999999963,-1.));
#435=CARTESIAN_POINT('',(54.9999999999901,29.9999999999963,-1.));
#436=CARTESIAN_POINT('',(59.9999999999901,24.9999999999963,-1.));
#437=CARTESIAN_POINT('Origin',(54.9999999999901,24.9999999999963,-1.));
#438=CARTESIAN_POINT('',(59.99999999999,-27.9999999999964,-1.));
#439=CARTESIAN_POINT('',(59.99999999999,-27.9999999999964,-1.));
#440=CARTESIAN_POINT('',(58.0000000000182,-29.9999999999963,-1.));
#441=CARTESIAN_POINT('Origin',(57.99999999999,-27.9999999999963,-1.));
#442=CARTESIAN_POINT('',(-58.0000000000321,-29.9999999999963,-1.));
#443=CARTESIAN_POINT('',(-58.0000000000321,-29.9999999999963,-1.));
#444=CARTESIAN_POINT('',(-60.0000000000042,-27.9999999999965,-1.));
#445=CARTESIAN_POINT('Origin',(-58.0000000000041,-27.9999999999963,-1.));
#446=CARTESIAN_POINT('',(-60.0000000000042,24.9999999999962,-1.));
#447=CARTESIAN_POINT('',(-60.0000000000041,24.9999999999962,-1.));
#448=CARTESIAN_POINT('Origin',(-55.0000000000041,24.9999999999962,-1.));
#449=CARTESIAN_POINT('Origin',(54.9999999999901,24.9999999999963,0.));
#450=CARTESIAN_POINT('',(54.9999999999901,29.9999999999963,1.));
#451=CARTESIAN_POINT('',(54.9999999999901,29.9999999999963,0.));
#452=CARTESIAN_POINT('',(59.9999999999901,24.9999999999963,1.));
#453=CARTESIAN_POINT('Origin',(54.9999999999901,24.9999999999963,1.));
#454=CARTESIAN_POINT('',(59.9999999999901,24.9999999999963,0.));
#455=CARTESIAN_POINT('Origin',(59.99999999999,-27.9999999999964,0.));
#456=CARTESIAN_POINT('',(59.99999999999,-27.9999999999964,1.));
#457=CARTESIAN_POINT('',(59.99999999999,-27.9999999999964,1.));
#458=CARTESIAN_POINT('',(59.99999999999,-27.9999999999964,0.));
#459=CARTESIAN_POINT('Origin',(57.99999999999,-27.9999999999963,0.));
#460=CARTESIAN_POINT('',(58.0000000000182,-29.9999999999963,1.));
#461=CARTESIAN_POINT('Origin',(57.99999999999,-27.9999999999963,1.));
#462=CARTESIAN_POINT('',(58.0000000000182,-29.9999999999963,0.));
#463=CARTESIAN_POINT('Origin',(-58.0000000000321,-29.9999999999963,0.));
#464=CARTESIAN_POINT('',(-58.0000000000321,-29.9999999999963,1.));
#465=CARTESIAN_POINT('',(-58.0000000000321,-29.9999999999963,1.));
#466=CARTESIAN_POINT('',(-58.0000000000321,-29.9999999999963,0.));
#467=CARTESIAN_POINT('Origin',(-58.0000000000041,-27.9999999999963,0.));
#468=CARTESIAN_POINT('',(-60.0000000000042,-27.9999999999965,1.));
#469=CARTESIAN_POINT('Origin',(-58.0000000000041,-27.9999999999963,1.));
#470=CARTESIAN_POINT('',(-60.0000000000041,-27.9999999999965,0.));
#471=CARTESIAN_POINT('Origin',(-60.0000000000041,24.9999999999962,0.));
#472=CARTESIAN_POINT('',(-60.0000000000042,24.9999999999962,1.));
#473=CARTESIAN_POINT('',(-60.0000000000041,24.9999999999962,1.));
#474=CARTESIAN_POINT('',(-60.0000000000041,24.9999999999962,0.));
#475=CARTESIAN_POINT('Origin',(-55.0000000000041,24.9999999999962,0.));
#476=CARTESIAN_POINT('',(-55.0000000000041,29.9999999999963,1.));
#477=CARTESIAN_POINT('Origin',(-55.0000000000041,24.9999999999962,1.));
#478=CARTESIAN_POINT('',(-55.0000000000041,29.9999999999963,0.));
#479=CARTESIAN_POINT('Origin',(54.9999999999901,29.9999999999963,0.));
#480=CARTESIAN_POINT('',(54.9999999999901,29.9999999999963,1.));
#481=CARTESIAN_POINT('Origin',(-7.0223501494244E-12,-0.415854589901948,
1.));
#482=UNCERTAINTY_MEASURE_WITH_UNIT(LENGTH_MEASURE(0.01),#486,
'DISTANCE_ACCURACY_VALUE',
'Maximum model space distance between geometric entities at asserted c
onnectivities');
#483=UNCERTAINTY_MEASURE_WITH_UNIT(LENGTH_MEASURE(0.01),#486,
'DISTANCE_ACCURACY_VALUE',
'Maximum model space distance between geometric entities at asserted c
onnectivities');
#484=(
GEOMETRIC_REPRESENTATION_CONTEXT(3)
GLOBAL_UNCERTAINTY_ASSIGNED_CONTEXT((#482))
GLOBAL_UNIT_ASSIGNED_CONTEXT((#486,#488,#489))
REPRESENTATION_CONTEXT('','3D')
);
#485=(
GEOMETRIC_REPRESENTATION_CONTEXT(3)
GLOBAL_UNCERTAINTY_ASSIGNED_CONTEXT((#483))
GLOBAL_UNIT_ASSIGNED_CONTEXT((#486,#488,#489))
REPRESENTATION_CONTEXT('','3D')
);
#486=(
LENGTH_UNIT()
NAMED_UNIT(*)
SI_UNIT(.MILLI.,.METRE.)
);
#487=(
LENGTH_UNIT()
NAMED_UNIT(*)
SI_UNIT(.CENTI.,.METRE.)
);
#488=(
NAMED_UNIT(*)
PLANE_ANGLE_UNIT()
SI_UNIT($,.RADIAN.)
);
#489=(
NAMED_UNIT(*)
SI_UNIT($,.STERADIAN.)
SOLID_ANGLE_UNIT()
);
#490=SHAPE_DEFINITION_REPRESENTATION(#491,#492);
#491=PRODUCT_DEFINITION_SHAPE('',$,#494);
#492=SHAPE_REPRESENTATION('',(#294),#484);
#493=PRODUCT_DEFINITION_CONTEXT('part definition',#498,'design');
#494=PRODUCT_DEFINITION('CE60-02','CE60-02',#495,#493);
#495=PRODUCT_DEFINITION_FORMATION('A00',$,#500);
#496=PRODUCT_RELATED_PRODUCT_CATEGORY('CE60-02','CE60-02',(#500));
#497=APPLICATION_PROTOCOL_DEFINITION('international standard',
'automotive_design',2009,#498);
#498=APPLICATION_CONTEXT(
'Core Data for Automotive Mechanical Design Process');
#499=PRODUCT_CONTEXT('part definition',#498,'mechanical');
#500=PRODUCT('CE60-02','CE60-02',
'Tappo acciaio inossidabile profilo canalina portacavi 60x120',(#499));
#501=PRESENTATION_STYLE_ASSIGNMENT((#502));
#502=SURFACE_STYLE_USAGE(.BOTH.,#505);
#503=SURFACE_STYLE_RENDERING_WITH_PROPERTIES($,#509,(#504));
#504=SURFACE_STYLE_TRANSPARENT(0.);
#505=SURFACE_SIDE_STYLE('',(#506,#503));
#506=SURFACE_STYLE_FILL_AREA(#507);
#507=FILL_AREA_STYLE('',(#508));
#508=FILL_AREA_STYLE_COLOUR('',#509);
#509=COLOUR_RGB('',0.745098039215686,0.737254901960784,0.729411764705882);
ENDSEC;
END-ISO-10303-21;
