ISO-10303-21;
HEADER;
/* Generated by software containing ST-Developer
 * from STEP Tools, Inc. (www.steptools.com) 
 */

FILE_DESCRIPTION(
/* description */ ('Tappo 40x40 45 gradi'),
/* implementation_level */ '2;1');

FILE_NAME(
/* name */ 'C:\\Users\\Stefan.Nesic\\Desktop\\01010STEP\\CC40-40T.stp',

/* time_stamp */ '2022-06-17T14:02:24+02:00',
/* author */ ('Davide'),
/* organization */ (''),
/* preprocessor_version */ 'ST-DEVELOPER v18.1',
/* originating_system */ 'Autodesk Inventor 2021',
/* authorisation */ '');

FILE_SCHEMA (('AUTOMOTIVE_DESIGN { 1 0 10303 214 3 1 1 }'));
ENDSEC;

DATA;
#10=MECHANICAL_DESIGN_GEOMETRIC_PRESENTATION_REPRESENTATION('',(#13),#602);
#11=SHAPE_REPRESENTATION_RELATIONSHIP('SRR','None',#609,#12);
#12=ADVANCED_BREP_SHAPE_REPRESENTATION('',(#14),#601);
#13=STYLED_ITEM('',(#618),#14);
#14=MANIFOLD_SOLID_BREP('Solido1',#333);
#15=PLANE('',#378);
#16=PLANE('',#381);
#17=PLANE('',#384);
#18=PLANE('',#385);
#19=PLANE('',#386);
#20=PLANE('',#391);
#21=PLANE('',#393);
#22=SPHERICAL_SURFACE('',#359,2.);
#23=SPHERICAL_SURFACE('',#364,2.);
#24=SPHERICAL_SURFACE('',#369,2.);
#25=SPHERICAL_SURFACE('',#374,2.);
#26=SPHERICAL_SURFACE('',#376,2.);
#27=FACE_OUTER_BOUND('',#49,.T.);
#28=FACE_OUTER_BOUND('',#50,.T.);
#29=FACE_OUTER_BOUND('',#51,.T.);
#30=FACE_OUTER_BOUND('',#52,.T.);
#31=FACE_OUTER_BOUND('',#53,.T.);
#32=FACE_OUTER_BOUND('',#54,.T.);
#33=FACE_OUTER_BOUND('',#55,.T.);
#34=FACE_OUTER_BOUND('',#56,.T.);
#35=FACE_OUTER_BOUND('',#57,.T.);
#36=FACE_OUTER_BOUND('',#58,.T.);
#37=FACE_OUTER_BOUND('',#59,.T.);
#38=FACE_OUTER_BOUND('',#60,.T.);
#39=FACE_OUTER_BOUND('',#61,.T.);
#40=FACE_OUTER_BOUND('',#62,.T.);
#41=FACE_OUTER_BOUND('',#63,.T.);
#42=FACE_OUTER_BOUND('',#64,.T.);
#43=FACE_OUTER_BOUND('',#65,.T.);
#44=FACE_OUTER_BOUND('',#66,.T.);
#45=FACE_OUTER_BOUND('',#67,.T.);
#46=FACE_OUTER_BOUND('',#68,.T.);
#47=FACE_OUTER_BOUND('',#69,.T.);
#48=FACE_OUTER_BOUND('',#70,.T.);
#49=EDGE_LOOP('',(#211,#212,#213,#214));
#50=EDGE_LOOP('',(#215,#216,#217,#218));
#51=EDGE_LOOP('',(#219,#220,#221));
#52=EDGE_LOOP('',(#222,#223,#224,#225));
#53=EDGE_LOOP('',(#226,#227,#228));
#54=EDGE_LOOP('',(#229,#230,#231,#232));
#55=EDGE_LOOP('',(#233,#234,#235));
#56=EDGE_LOOP('',(#236,#237,#238,#239));
#57=EDGE_LOOP('',(#240,#241,#242));
#58=EDGE_LOOP('',(#243,#244,#245));
#59=EDGE_LOOP('',(#246,#247,#248,#249));
#60=EDGE_LOOP('',(#250,#251,#252,#253));
#61=EDGE_LOOP('',(#254,#255,#256,#257));
#62=EDGE_LOOP('',(#258,#259,#260,#261));
#63=EDGE_LOOP('',(#262,#263,#264,#265));
#64=EDGE_LOOP('',(#266,#267,#268,#269,#270));
#65=EDGE_LOOP('',(#271,#272,#273,#274,#275,#276,#277,#278,#279,#280));
#66=EDGE_LOOP('',(#281,#282,#283,#284));
#67=EDGE_LOOP('',(#285,#286,#287,#288));
#68=EDGE_LOOP('',(#289,#290,#291,#292));
#69=EDGE_LOOP('',(#293,#294,#295,#296));
#70=EDGE_LOOP('',(#297,#298,#299,#300));
#71=LINE('',#512,#96);
#72=LINE('',#515,#97);
#73=LINE('',#520,#98);
#74=LINE('',#523,#99);
#75=LINE('',#530,#100);
#76=LINE('',#533,#101);
#77=LINE('',#540,#102);
#78=LINE('',#543,#103);
#79=LINE('',#550,#104);
#80=LINE('',#552,#105);
#81=LINE('',#559,#106);
#82=LINE('',#561,#107);
#83=LINE('',#562,#108);
#84=LINE('',#565,#109);
#85=LINE('',#569,#110);
#86=LINE('',#570,#111);
#87=LINE('',#573,#112);
#88=LINE('',#577,#113);
#89=LINE('',#578,#114);
#90=LINE('',#586,#115);
#91=LINE('',#589,#116);
#92=LINE('',#591,#117);
#93=LINE('',#593,#118);
#94=LINE('',#595,#119);
#95=LINE('',#597,#120);
#96=VECTOR('',#401,10.);
#97=VECTOR('',#404,10.);
#98=VECTOR('',#409,10.);
#99=VECTOR('',#412,10.);
#100=VECTOR('',#421,10.);
#101=VECTOR('',#424,10.);
#102=VECTOR('',#433,10.);
#103=VECTOR('',#436,10.);
#104=VECTOR('',#445,10.);
#105=VECTOR('',#448,10.);
#106=VECTOR('',#459,10.);
#107=VECTOR('',#460,10.);
#108=VECTOR('',#461,10.);
#109=VECTOR('',#464,10.);
#110=VECTOR('',#469,10.);
#111=VECTOR('',#470,10.);
#112=VECTOR('',#473,10.);
#113=VECTOR('',#478,10.);
#114=VECTOR('',#479,10.);
#115=VECTOR('',#488,10.);
#116=VECTOR('',#491,10.);
#117=VECTOR('',#494,10.);
#118=VECTOR('',#497,10.);
#119=VECTOR('',#500,10.);
#120=VECTOR('',#503,10.);
#121=CIRCLE('',#354,2.);
#122=CIRCLE('',#355,2.);
#123=CIRCLE('',#357,2.);
#124=CIRCLE('',#358,2.);
#125=CIRCLE('',#360,1.99999999999999);
#126=CIRCLE('',#362,2.);
#127=CIRCLE('',#363,2.);
#128=CIRCLE('',#365,2.);
#129=CIRCLE('',#367,2.);
#130=CIRCLE('',#368,2.);
#131=CIRCLE('',#370,2.00000000000002);
#132=CIRCLE('',#372,2.);
#133=CIRCLE('',#373,2.);
#134=CIRCLE('',#375,2.00000000000003);
#135=CIRCLE('',#377,1.99999999999999);
#136=CIRCLE('',#380,1.99999999999999);
#137=CIRCLE('',#383,1.99999999999999);
#138=CIRCLE('',#387,2.);
#139=CIRCLE('',#388,2.00000000000003);
#140=CIRCLE('',#389,2.00000000000002);
#141=VERTEX_POINT('',#508);
#142=VERTEX_POINT('',#509);
#143=VERTEX_POINT('',#511);
#144=VERTEX_POINT('',#513);
#145=VERTEX_POINT('',#517);
#146=VERTEX_POINT('',#519);
#147=VERTEX_POINT('',#521);
#148=VERTEX_POINT('',#527);
#149=VERTEX_POINT('',#529);
#150=VERTEX_POINT('',#531);
#151=VERTEX_POINT('',#537);
#152=VERTEX_POINT('',#539);
#153=VERTEX_POINT('',#541);
#154=VERTEX_POINT('',#547);
#155=VERTEX_POINT('',#549);
#156=VERTEX_POINT('',#558);
#157=VERTEX_POINT('',#560);
#158=VERTEX_POINT('',#564);
#159=VERTEX_POINT('',#568);
#160=VERTEX_POINT('',#572);
#161=VERTEX_POINT('',#576);
#162=VERTEX_POINT('',#581);
#163=VERTEX_POINT('',#583);
#164=VERTEX_POINT('',#585);
#165=VERTEX_POINT('',#587);
#166=EDGE_CURVE('',#141,#142,#121,.T.);
#167=EDGE_CURVE('',#142,#143,#71,.T.);
#168=EDGE_CURVE('',#143,#144,#122,.T.);
#169=EDGE_CURVE('',#144,#141,#72,.T.);
#170=EDGE_CURVE('',#144,#145,#123,.T.);
#171=EDGE_CURVE('',#145,#146,#73,.T.);
#172=EDGE_CURVE('',#146,#147,#124,.T.);
#173=EDGE_CURVE('',#147,#144,#74,.T.);
#174=EDGE_CURVE('',#143,#145,#125,.T.);
#175=EDGE_CURVE('',#147,#148,#126,.T.);
#176=EDGE_CURVE('',#148,#149,#75,.T.);
#177=EDGE_CURVE('',#149,#150,#127,.T.);
#178=EDGE_CURVE('',#150,#147,#76,.T.);
#179=EDGE_CURVE('',#146,#148,#128,.T.);
#180=EDGE_CURVE('',#150,#151,#129,.T.);
#181=EDGE_CURVE('',#151,#152,#77,.T.);
#182=EDGE_CURVE('',#152,#153,#130,.T.);
#183=EDGE_CURVE('',#153,#150,#78,.T.);
#184=EDGE_CURVE('',#149,#151,#131,.T.);
#185=EDGE_CURVE('',#153,#154,#132,.T.);
#186=EDGE_CURVE('',#154,#155,#79,.T.);
#187=EDGE_CURVE('',#155,#141,#133,.T.);
#188=EDGE_CURVE('',#141,#153,#80,.T.);
#189=EDGE_CURVE('',#152,#154,#134,.T.);
#190=EDGE_CURVE('',#155,#142,#135,.T.);
#191=EDGE_CURVE('',#156,#145,#81,.T.);
#192=EDGE_CURVE('',#157,#156,#82,.T.);
#193=EDGE_CURVE('',#146,#157,#83,.T.);
#194=EDGE_CURVE('',#158,#143,#84,.T.);
#195=EDGE_CURVE('',#156,#158,#136,.T.);
#196=EDGE_CURVE('',#159,#142,#85,.T.);
#197=EDGE_CURVE('',#158,#159,#86,.T.);
#198=EDGE_CURVE('',#160,#155,#87,.T.);
#199=EDGE_CURVE('',#159,#160,#137,.T.);
#200=EDGE_CURVE('',#161,#154,#88,.T.);
#201=EDGE_CURVE('',#160,#161,#89,.T.);
#202=EDGE_CURVE('',#162,#157,#138,.T.);
#203=EDGE_CURVE('',#161,#163,#139,.T.);
#204=EDGE_CURVE('',#163,#164,#90,.T.);
#205=EDGE_CURVE('',#164,#165,#140,.T.);
#206=EDGE_CURVE('',#165,#162,#91,.T.);
#207=EDGE_CURVE('',#163,#152,#92,.T.);
#208=EDGE_CURVE('',#164,#151,#93,.T.);
#209=EDGE_CURVE('',#165,#149,#94,.T.);
#210=EDGE_CURVE('',#162,#148,#95,.T.);
#211=ORIENTED_EDGE('',*,*,#166,.T.);
#212=ORIENTED_EDGE('',*,*,#167,.T.);
#213=ORIENTED_EDGE('',*,*,#168,.T.);
#214=ORIENTED_EDGE('',*,*,#169,.T.);
#215=ORIENTED_EDGE('',*,*,#170,.T.);
#216=ORIENTED_EDGE('',*,*,#171,.T.);
#217=ORIENTED_EDGE('',*,*,#172,.T.);
#218=ORIENTED_EDGE('',*,*,#173,.T.);
#219=ORIENTED_EDGE('',*,*,#170,.F.);
#220=ORIENTED_EDGE('',*,*,#168,.F.);
#221=ORIENTED_EDGE('',*,*,#174,.T.);
#222=ORIENTED_EDGE('',*,*,#175,.T.);
#223=ORIENTED_EDGE('',*,*,#176,.T.);
#224=ORIENTED_EDGE('',*,*,#177,.T.);
#225=ORIENTED_EDGE('',*,*,#178,.T.);
#226=ORIENTED_EDGE('',*,*,#175,.F.);
#227=ORIENTED_EDGE('',*,*,#172,.F.);
#228=ORIENTED_EDGE('',*,*,#179,.T.);
#229=ORIENTED_EDGE('',*,*,#180,.T.);
#230=ORIENTED_EDGE('',*,*,#181,.T.);
#231=ORIENTED_EDGE('',*,*,#182,.T.);
#232=ORIENTED_EDGE('',*,*,#183,.T.);
#233=ORIENTED_EDGE('',*,*,#180,.F.);
#234=ORIENTED_EDGE('',*,*,#177,.F.);
#235=ORIENTED_EDGE('',*,*,#184,.T.);
#236=ORIENTED_EDGE('',*,*,#185,.T.);
#237=ORIENTED_EDGE('',*,*,#186,.T.);
#238=ORIENTED_EDGE('',*,*,#187,.T.);
#239=ORIENTED_EDGE('',*,*,#188,.T.);
#240=ORIENTED_EDGE('',*,*,#185,.F.);
#241=ORIENTED_EDGE('',*,*,#182,.F.);
#242=ORIENTED_EDGE('',*,*,#189,.T.);
#243=ORIENTED_EDGE('',*,*,#166,.F.);
#244=ORIENTED_EDGE('',*,*,#187,.F.);
#245=ORIENTED_EDGE('',*,*,#190,.T.);
#246=ORIENTED_EDGE('',*,*,#171,.F.);
#247=ORIENTED_EDGE('',*,*,#191,.F.);
#248=ORIENTED_EDGE('',*,*,#192,.F.);
#249=ORIENTED_EDGE('',*,*,#193,.F.);
#250=ORIENTED_EDGE('',*,*,#174,.F.);
#251=ORIENTED_EDGE('',*,*,#194,.F.);
#252=ORIENTED_EDGE('',*,*,#195,.F.);
#253=ORIENTED_EDGE('',*,*,#191,.T.);
#254=ORIENTED_EDGE('',*,*,#167,.F.);
#255=ORIENTED_EDGE('',*,*,#196,.F.);
#256=ORIENTED_EDGE('',*,*,#197,.F.);
#257=ORIENTED_EDGE('',*,*,#194,.T.);
#258=ORIENTED_EDGE('',*,*,#190,.F.);
#259=ORIENTED_EDGE('',*,*,#198,.F.);
#260=ORIENTED_EDGE('',*,*,#199,.F.);
#261=ORIENTED_EDGE('',*,*,#196,.T.);
#262=ORIENTED_EDGE('',*,*,#186,.F.);
#263=ORIENTED_EDGE('',*,*,#200,.F.);
#264=ORIENTED_EDGE('',*,*,#201,.F.);
#265=ORIENTED_EDGE('',*,*,#198,.T.);
#266=ORIENTED_EDGE('',*,*,#169,.F.);
#267=ORIENTED_EDGE('',*,*,#173,.F.);
#268=ORIENTED_EDGE('',*,*,#178,.F.);
#269=ORIENTED_EDGE('',*,*,#183,.F.);
#270=ORIENTED_EDGE('',*,*,#188,.F.);
#271=ORIENTED_EDGE('',*,*,#202,.T.);
#272=ORIENTED_EDGE('',*,*,#192,.T.);
#273=ORIENTED_EDGE('',*,*,#195,.T.);
#274=ORIENTED_EDGE('',*,*,#197,.T.);
#275=ORIENTED_EDGE('',*,*,#199,.T.);
#276=ORIENTED_EDGE('',*,*,#201,.T.);
#277=ORIENTED_EDGE('',*,*,#203,.T.);
#278=ORIENTED_EDGE('',*,*,#204,.T.);
#279=ORIENTED_EDGE('',*,*,#205,.T.);
#280=ORIENTED_EDGE('',*,*,#206,.T.);
#281=ORIENTED_EDGE('',*,*,#189,.F.);
#282=ORIENTED_EDGE('',*,*,#207,.F.);
#283=ORIENTED_EDGE('',*,*,#203,.F.);
#284=ORIENTED_EDGE('',*,*,#200,.T.);
#285=ORIENTED_EDGE('',*,*,#181,.F.);
#286=ORIENTED_EDGE('',*,*,#208,.F.);
#287=ORIENTED_EDGE('',*,*,#204,.F.);
#288=ORIENTED_EDGE('',*,*,#207,.T.);
#289=ORIENTED_EDGE('',*,*,#184,.F.);
#290=ORIENTED_EDGE('',*,*,#209,.F.);
#291=ORIENTED_EDGE('',*,*,#205,.F.);
#292=ORIENTED_EDGE('',*,*,#208,.T.);
#293=ORIENTED_EDGE('',*,*,#176,.F.);
#294=ORIENTED_EDGE('',*,*,#210,.F.);
#295=ORIENTED_EDGE('',*,*,#206,.F.);
#296=ORIENTED_EDGE('',*,*,#209,.T.);
#297=ORIENTED_EDGE('',*,*,#179,.F.);
#298=ORIENTED_EDGE('',*,*,#193,.T.);
#299=ORIENTED_EDGE('',*,*,#202,.F.);
#300=ORIENTED_EDGE('',*,*,#210,.T.);
#301=CYLINDRICAL_SURFACE('',#353,2.);
#302=CYLINDRICAL_SURFACE('',#356,2.);
#303=CYLINDRICAL_SURFACE('',#361,2.);
#304=CYLINDRICAL_SURFACE('',#366,2.);
#305=CYLINDRICAL_SURFACE('',#371,2.);
#306=CYLINDRICAL_SURFACE('',#379,1.99999999999999);
#307=CYLINDRICAL_SURFACE('',#382,1.99999999999999);
#308=CYLINDRICAL_SURFACE('',#390,2.00000000000003);
#309=CYLINDRICAL_SURFACE('',#392,2.00000000000002);
#310=CYLINDRICAL_SURFACE('',#394,2.);
#311=ADVANCED_FACE('',(#27),#301,.T.);
#312=ADVANCED_FACE('',(#28),#302,.T.);
#313=ADVANCED_FACE('',(#29),#22,.T.);
#314=ADVANCED_FACE('',(#30),#303,.T.);
#315=ADVANCED_FACE('',(#31),#23,.T.);
#316=ADVANCED_FACE('',(#32),#304,.T.);
#317=ADVANCED_FACE('',(#33),#24,.T.);
#318=ADVANCED_FACE('',(#34),#305,.T.);
#319=ADVANCED_FACE('',(#35),#25,.T.);
#320=ADVANCED_FACE('',(#36),#26,.T.);
#321=ADVANCED_FACE('',(#37),#15,.T.);
#322=ADVANCED_FACE('',(#38),#306,.T.);
#323=ADVANCED_FACE('',(#39),#16,.T.);
#324=ADVANCED_FACE('',(#40),#307,.T.);
#325=ADVANCED_FACE('',(#41),#17,.T.);
#326=ADVANCED_FACE('',(#42),#18,.T.);
#327=ADVANCED_FACE('',(#43),#19,.F.);
#328=ADVANCED_FACE('',(#44),#308,.T.);
#329=ADVANCED_FACE('',(#45),#20,.T.);
#330=ADVANCED_FACE('',(#46),#309,.T.);
#331=ADVANCED_FACE('',(#47),#21,.T.);
#332=ADVANCED_FACE('',(#48),#310,.T.);
#333=CLOSED_SHELL('',(#311,#312,#313,#314,#315,#316,#317,#318,#319,#320,
#321,#322,#323,#324,#325,#326,#327,#328,#329,#330,#331,#332));
#334=DERIVED_UNIT_ELEMENT(#336,1.);
#335=DERIVED_UNIT_ELEMENT(#604,-3.);
#336=(
MASS_UNIT()
NAMED_UNIT(*)
SI_UNIT($,.GRAM.)
);
#337=DERIVED_UNIT((#334,#335));
#338=MEASURE_REPRESENTATION_ITEM('density measure',
POSITIVE_RATIO_MEASURE(0.952),#337);
#339=PROPERTY_DEFINITION_REPRESENTATION(#344,#341);
#340=PROPERTY_DEFINITION_REPRESENTATION(#345,#342);
#341=REPRESENTATION('material name',(#343),#601);
#342=REPRESENTATION('density',(#338),#601);
#343=DESCRIPTIVE_REPRESENTATION_ITEM('Polietilene, Alta densit\X\E0',
'Polietilene, Alta densit\X\E0');
#344=PROPERTY_DEFINITION('material property','material name',#611);
#345=PROPERTY_DEFINITION('material property','density of part',#611);
#346=DATE_TIME_ROLE('creation_date');
#347=APPLIED_DATE_AND_TIME_ASSIGNMENT(#348,#346,(#611));
#348=DATE_AND_TIME(#349,#350);
#349=CALENDAR_DATE(2019,28,2);
#350=LOCAL_TIME(0,0,0.,#351);
#351=COORDINATED_UNIVERSAL_TIME_OFFSET(0,0,.BEHIND.);
#352=AXIS2_PLACEMENT_3D('placement',#506,#395,#396);
#353=AXIS2_PLACEMENT_3D('',#507,#397,#398);
#354=AXIS2_PLACEMENT_3D('',#510,#399,#400);
#355=AXIS2_PLACEMENT_3D('',#514,#402,#403);
#356=AXIS2_PLACEMENT_3D('',#516,#405,#406);
#357=AXIS2_PLACEMENT_3D('',#518,#407,#408);
#358=AXIS2_PLACEMENT_3D('',#522,#410,#411);
#359=AXIS2_PLACEMENT_3D('',#524,#413,#414);
#360=AXIS2_PLACEMENT_3D('',#525,#415,#416);
#361=AXIS2_PLACEMENT_3D('',#526,#417,#418);
#362=AXIS2_PLACEMENT_3D('',#528,#419,#420);
#363=AXIS2_PLACEMENT_3D('',#532,#422,#423);
#364=AXIS2_PLACEMENT_3D('',#534,#425,#426);
#365=AXIS2_PLACEMENT_3D('',#535,#427,#428);
#366=AXIS2_PLACEMENT_3D('',#536,#429,#430);
#367=AXIS2_PLACEMENT_3D('',#538,#431,#432);
#368=AXIS2_PLACEMENT_3D('',#542,#434,#435);
#369=AXIS2_PLACEMENT_3D('',#544,#437,#438);
#370=AXIS2_PLACEMENT_3D('',#545,#439,#440);
#371=AXIS2_PLACEMENT_3D('',#546,#441,#442);
#372=AXIS2_PLACEMENT_3D('',#548,#443,#444);
#373=AXIS2_PLACEMENT_3D('',#551,#446,#447);
#374=AXIS2_PLACEMENT_3D('',#553,#449,#450);
#375=AXIS2_PLACEMENT_3D('',#554,#451,#452);
#376=AXIS2_PLACEMENT_3D('',#555,#453,#454);
#377=AXIS2_PLACEMENT_3D('',#556,#455,#456);
#378=AXIS2_PLACEMENT_3D('',#557,#457,#458);
#379=AXIS2_PLACEMENT_3D('',#563,#462,#463);
#380=AXIS2_PLACEMENT_3D('',#566,#465,#466);
#381=AXIS2_PLACEMENT_3D('',#567,#467,#468);
#382=AXIS2_PLACEMENT_3D('',#571,#471,#472);
#383=AXIS2_PLACEMENT_3D('',#574,#474,#475);
#384=AXIS2_PLACEMENT_3D('',#575,#476,#477);
#385=AXIS2_PLACEMENT_3D('',#579,#480,#481);
#386=AXIS2_PLACEMENT_3D('',#580,#482,#483);
#387=AXIS2_PLACEMENT_3D('',#582,#484,#485);
#388=AXIS2_PLACEMENT_3D('',#584,#486,#487);
#389=AXIS2_PLACEMENT_3D('',#588,#489,#490);
#390=AXIS2_PLACEMENT_3D('',#590,#492,#493);
#391=AXIS2_PLACEMENT_3D('',#592,#495,#496);
#392=AXIS2_PLACEMENT_3D('',#594,#498,#499);
#393=AXIS2_PLACEMENT_3D('',#596,#501,#502);
#394=AXIS2_PLACEMENT_3D('',#598,#504,#505);
#395=DIRECTION('axis',(0.,0.,1.));
#396=DIRECTION('refdir',(1.,0.,0.));
#397=DIRECTION('center_axis',(1.,-2.31913254032822E-14,0.));
#398=DIRECTION('ref_axis',(-1.64859708161796E-14,-0.707106781186548,0.707106781186547));
#399=DIRECTION('center_axis',(1.,-2.33146835171283E-14,0.));
#400=DIRECTION('ref_axis',(0.,0.,1.));
#401=DIRECTION('',(1.,-2.31913254032822E-14,0.));
#402=DIRECTION('center_axis',(-1.,2.44249065417534E-14,0.));
#403=DIRECTION('ref_axis',(-2.44249065417534E-14,-1.,0.));
#404=DIRECTION('',(-1.,2.31913254032822E-14,0.));
#405=DIRECTION('center_axis',(7.50634122760453E-14,1.,0.));
#406=DIRECTION('ref_axis',(0.707106781186547,-5.33831435952484E-14,0.707106781186548));
#407=DIRECTION('center_axis',(7.54951656745107E-14,1.,0.));
#408=DIRECTION('ref_axis',(0.,0.,1.));
#409=DIRECTION('',(7.50634122760453E-14,1.,0.));
#410=DIRECTION('center_axis',(-7.66053886991359E-14,-1.,0.));
#411=DIRECTION('ref_axis',(1.,-7.66053886991359E-14,0.));
#412=DIRECTION('',(-7.50634122760453E-14,-1.,0.));
#413=DIRECTION('center_axis',(0.40824829046387,-0.408248290463856,-0.816496580927726));
#414=DIRECTION('ref_axis',(0.577350269189635,-0.577350269189617,0.577350269189625));
#415=DIRECTION('center_axis',(0.,0.,1.));
#416=DIRECTION('ref_axis',(0.,-1.,0.));
#417=DIRECTION('center_axis',(-1.,0.,0.));
#418=DIRECTION('ref_axis',(0.,0.707106781186548,0.707106781186547));
#419=DIRECTION('center_axis',(-1.,0.,0.));
#420=DIRECTION('ref_axis',(0.,0.,1.));
#421=DIRECTION('',(-1.,0.,0.));
#422=DIRECTION('center_axis',(1.,0.,0.));
#423=DIRECTION('ref_axis',(0.,1.,0.));
#424=DIRECTION('',(1.,0.,0.));
#425=DIRECTION('center_axis',(-0.816496580927737,0.408248290463868,0.408248290463836));
#426=DIRECTION('ref_axis',(0.57735026918961,0.577350269189656,0.577350269189611));
#427=DIRECTION('center_axis',(0.,0.,1.));
#428=DIRECTION('ref_axis',(1.,0.,0.));
#429=DIRECTION('center_axis',(-0.707106781186548,-0.707106781186547,0.));
#430=DIRECTION('ref_axis',(-0.499999999999999,0.500000000000001,0.707106781186548));
#431=DIRECTION('center_axis',(-0.707106781186548,-0.707106781186547,0.));
#432=DIRECTION('ref_axis',(0.,0.,1.));
#433=DIRECTION('',(-0.707106781186548,-0.707106781186547,0.));
#434=DIRECTION('center_axis',(0.707106781186548,0.707106781186548,0.));
#435=DIRECTION('ref_axis',(-0.707106781186548,0.707106781186548,0.));
#436=DIRECTION('',(0.707106781186548,0.707106781186547,0.));
#437=DIRECTION('center_axis',(-0.941663177664746,-0.290400099340198,-0.170112439678982));
#438=DIRECTION('ref_axis',(-0.336556770590538,0.812519920068834,0.475963149477987));
#439=DIRECTION('center_axis',(0.,0.,1.));
#440=DIRECTION('ref_axis',(2.20379270388092E-13,1.,0.));
#441=DIRECTION('center_axis',(3.87361440302829E-15,-1.,0.));
#442=DIRECTION('ref_axis',(-0.707106781186547,-2.35513868802566E-15,0.707106781186548));
#443=DIRECTION('center_axis',(3.88578058618805E-15,-1.,0.));
#444=DIRECTION('ref_axis',(0.,0.,1.));
#445=DIRECTION('',(3.87361440302829E-15,-1.,0.));
#446=DIRECTION('center_axis',(-4.44089209850063E-15,1.,0.));
#447=DIRECTION('ref_axis',(-1.,-4.44089209850063E-15,0.));
#448=DIRECTION('',(-3.87361440302829E-15,1.,0.));
#449=DIRECTION('center_axis',(-0.439732612032145,0.18214321172219,-0.879465224064552));
#450=DIRECTION('ref_axis',(-0.812519920068217,0.336556770591905,0.475963149478073));
#451=DIRECTION('center_axis',(0.,0.,1.));
#452=DIRECTION('ref_axis',(-0.707106781185785,0.70710678118731,0.));
#453=DIRECTION('center_axis',(0.408248290463862,-0.816496580927727,-0.408248290463863));
#454=DIRECTION('ref_axis',(-0.577350269189626,-0.577350269189624,0.577350269189627));
#455=DIRECTION('center_axis',(0.,0.,1.));
#456=DIRECTION('ref_axis',(-1.,0.,0.));
#457=DIRECTION('center_axis',(1.,-7.50634122760453E-14,0.));
#458=DIRECTION('ref_axis',(7.50634122760453E-14,1.,0.));
#459=DIRECTION('',(0.,0.,1.));
#460=DIRECTION('',(-7.50634122760453E-14,-1.,0.));
#461=DIRECTION('',(0.,0.,-1.));
#462=DIRECTION('center_axis',(0.,0.,1.));
#463=DIRECTION('ref_axis',(0.,-1.,0.));
#464=DIRECTION('',(0.,0.,1.));
#465=DIRECTION('center_axis',(0.,0.,-1.));
#466=DIRECTION('ref_axis',(0.,-1.,0.));
#467=DIRECTION('center_axis',(-2.31913254032822E-14,-1.,0.));
#468=DIRECTION('ref_axis',(1.,-2.31913254032822E-14,0.));
#469=DIRECTION('',(0.,0.,1.));
#470=DIRECTION('',(-1.,2.31913254032822E-14,0.));
#471=DIRECTION('center_axis',(0.,0.,1.));
#472=DIRECTION('ref_axis',(-1.,0.,0.));
#473=DIRECTION('',(0.,0.,1.));
#474=DIRECTION('center_axis',(0.,0.,-1.));
#475=DIRECTION('ref_axis',(-1.,0.,0.));
#476=DIRECTION('center_axis',(-1.,-3.87361440302829E-15,0.));
#477=DIRECTION('ref_axis',(3.87361440302829E-15,-1.,0.));
#478=DIRECTION('',(0.,0.,1.));
#479=DIRECTION('',(-3.87361440302829E-15,1.,0.));
#480=DIRECTION('center_axis',(0.,0.,1.));
#481=DIRECTION('ref_axis',(1.,0.,0.));
#482=DIRECTION('center_axis',(0.,0.,1.));
#483=DIRECTION('ref_axis',(1.,0.,0.));
#484=DIRECTION('center_axis',(0.,0.,-1.));
#485=DIRECTION('ref_axis',(1.,0.,0.));
#486=DIRECTION('center_axis',(0.,0.,-1.));
#487=DIRECTION('ref_axis',(-0.707106781185785,0.70710678118731,0.));
#488=DIRECTION('',(0.707106781186548,0.707106781186547,0.));
#489=DIRECTION('center_axis',(0.,0.,-1.));
#490=DIRECTION('ref_axis',(2.20379270388092E-13,1.,0.));
#491=DIRECTION('',(1.,0.,0.));
#492=DIRECTION('center_axis',(0.,0.,1.));
#493=DIRECTION('ref_axis',(-0.707106781185785,0.70710678118731,0.));
#494=DIRECTION('',(0.,0.,1.));
#495=DIRECTION('center_axis',(-0.707106781186547,0.707106781186548,0.));
#496=DIRECTION('ref_axis',(-0.707106781186548,-0.707106781186547,0.));
#497=DIRECTION('',(0.,0.,1.));
#498=DIRECTION('center_axis',(0.,0.,1.));
#499=DIRECTION('ref_axis',(2.20379270388092E-13,1.,0.));
#500=DIRECTION('',(0.,0.,1.));
#501=DIRECTION('center_axis',(0.,1.,0.));
#502=DIRECTION('ref_axis',(-1.,0.,0.));
#503=DIRECTION('',(0.,0.,1.));
#504=DIRECTION('center_axis',(0.,0.,1.));
#505=DIRECTION('ref_axis',(1.,0.,0.));
#506=CARTESIAN_POINT('',(0.,0.,0.));
#507=CARTESIAN_POINT('Origin',(-7.31689447073691,-18.0000000000003,0.5));
#508=CARTESIAN_POINT('',(-18.,-18.,2.5));
#509=CARTESIAN_POINT('',(-18.,-20.,0.5));
#510=CARTESIAN_POINT('Origin',(-18.,-18.,0.5));
#511=CARTESIAN_POINT('',(17.9999999999982,-20.0000000000008,0.5));
#512=CARTESIAN_POINT('',(-7.31689447073695,-20.0000000000003,0.5));
#513=CARTESIAN_POINT('',(17.9999999999982,-18.0000000000008,2.5));
#514=CARTESIAN_POINT('Origin',(17.9999999999982,-18.0000000000008,0.5));
#515=CARTESIAN_POINT('',(-7.31689447073691,-18.0000000000003,2.5));
#516=CARTESIAN_POINT('Origin',(17.9999999999987,-10.6831055292643,0.5));
#517=CARTESIAN_POINT('',(19.9999999999982,-18.0000000000009,0.5));
#518=CARTESIAN_POINT('Origin',(17.9999999999982,-18.0000000000007,0.5));
#519=CARTESIAN_POINT('',(20.0000000000009,17.9999999999992,0.5));
#520=CARTESIAN_POINT('',(19.9999999999987,-10.6831055292645,0.5));
#521=CARTESIAN_POINT('',(18.0000000000009,17.9999999999993,2.5));
#522=CARTESIAN_POINT('Origin',(18.0000000000009,17.9999999999993,0.5));
#523=CARTESIAN_POINT('',(17.9999999999987,-10.6831055292643,2.5));
#524=CARTESIAN_POINT('Origin',(17.9999999999982,-18.0000000000009,0.5));
#525=CARTESIAN_POINT('Origin',(17.9999999999982,-18.0000000000009,0.5));
#526=CARTESIAN_POINT('Origin',(10.6831055292637,17.9999999999992,0.5));
#527=CARTESIAN_POINT('',(18.0000000000009,19.9999999999992,0.5));
#528=CARTESIAN_POINT('Origin',(18.0000000000009,17.9999999999992,0.5));
#529=CARTESIAN_POINT('',(8.82842712474759,19.9999999999992,0.5));
#530=CARTESIAN_POINT('',(10.6831055292637,19.9999999999992,0.5));
#531=CARTESIAN_POINT('',(8.82842712474759,17.9999999999992,2.5));
#532=CARTESIAN_POINT('Origin',(8.82842712474759,17.9999999999992,0.5));
#533=CARTESIAN_POINT('',(10.6831055292637,17.9999999999992,2.5));
#534=CARTESIAN_POINT('Origin',(18.0000000000009,17.9999999999992,0.5));
#535=CARTESIAN_POINT('Origin',(18.0000000000009,17.9999999999992,0.5));
#536=CARTESIAN_POINT('Origin',(2.12132034356057,11.2928932188126,0.5));
#537=CARTESIAN_POINT('',(7.41421356237424,19.4142135623724,0.5));
#538=CARTESIAN_POINT('Origin',(8.82842712474733,17.9999999999993,0.5));
#539=CARTESIAN_POINT('',(-19.4142135623716,-7.41421356237335,0.5));
#540=CARTESIAN_POINT('',(0.707106781187477,12.7071067811857,0.5));
#541=CARTESIAN_POINT('',(-17.9999999999985,-8.82842712474644,2.5));
#542=CARTESIAN_POINT('Origin',(-17.9999999999985,-8.82842712474644,0.5));
#543=CARTESIAN_POINT('',(2.12132034356057,11.2928932188126,2.5));
#544=CARTESIAN_POINT('Origin',(8.82842712474715,17.9999999999991,0.5));
#545=CARTESIAN_POINT('Origin',(8.82842712474715,17.9999999999991,0.5));
#546=CARTESIAN_POINT('Origin',(-18.0000000000001,-6.0973190916368,0.5));
#547=CARTESIAN_POINT('',(-20.0000000000001,-8.82842712474666,0.5));
#548=CARTESIAN_POINT('Origin',(-18.0000000000001,-8.82842712474665,0.5));
#549=CARTESIAN_POINT('',(-20.,-18.,0.5));
#550=CARTESIAN_POINT('',(-20.0000000000001,-6.0973190916368,0.5));
#551=CARTESIAN_POINT('Origin',(-18.,-18.,0.5));
#552=CARTESIAN_POINT('',(-18.0000000000001,-6.0973190916368,2.5));
#553=CARTESIAN_POINT('Origin',(-18.,-8.82842712474799,0.5));
#554=CARTESIAN_POINT('Origin',(-18.,-8.82842712474799,0.5));
#555=CARTESIAN_POINT('Origin',(-18.,-18.,0.5));
#556=CARTESIAN_POINT('Origin',(-18.,-18.,0.5));
#557=CARTESIAN_POINT('Origin',(19.9999999999982,-18.0000000000009,0.));
#558=CARTESIAN_POINT('',(19.9999999999982,-18.0000000000009,-2.5));
#559=CARTESIAN_POINT('',(19.9999999999982,-18.0000000000009,0.));
#560=CARTESIAN_POINT('',(20.0000000000009,17.9999999999992,-2.5));
#561=CARTESIAN_POINT('',(19.9999999999982,-18.0000000000009,-2.5));
#562=CARTESIAN_POINT('',(20.0000000000009,17.9999999999992,0.));
#563=CARTESIAN_POINT('Origin',(17.9999999999982,-18.0000000000009,0.));
#564=CARTESIAN_POINT('',(17.9999999999982,-20.0000000000008,-2.5));
#565=CARTESIAN_POINT('',(17.9999999999982,-20.0000000000008,0.));
#566=CARTESIAN_POINT('Origin',(17.9999999999982,-18.0000000000009,-2.5));
#567=CARTESIAN_POINT('Origin',(-18.,-20.,0.));
#568=CARTESIAN_POINT('',(-18.,-20.,-2.5));
#569=CARTESIAN_POINT('',(-18.,-20.,0.));
#570=CARTESIAN_POINT('',(-18.,-20.,-2.5));
#571=CARTESIAN_POINT('Origin',(-18.,-18.,0.));
#572=CARTESIAN_POINT('',(-20.,-18.,-2.5));
#573=CARTESIAN_POINT('',(-20.,-18.,0.));
#574=CARTESIAN_POINT('Origin',(-18.,-18.,-2.5));
#575=CARTESIAN_POINT('Origin',(-20.0000000000001,-8.82842712474666,0.));
#576=CARTESIAN_POINT('',(-20.0000000000001,-8.82842712474666,-2.5));
#577=CARTESIAN_POINT('',(-20.0000000000001,-8.82842712474666,0.));
#578=CARTESIAN_POINT('',(-20.0000000000001,-8.82842712474666,-2.5));
#579=CARTESIAN_POINT('Origin',(3.36621105852651,-3.36621105852686,2.5));
#580=CARTESIAN_POINT('Origin',(3.36621105852651,-3.36621105852686,-2.5));
#581=CARTESIAN_POINT('',(18.0000000000009,19.9999999999992,-2.5));
#582=CARTESIAN_POINT('Origin',(18.0000000000009,17.9999999999992,-2.5));
#583=CARTESIAN_POINT('',(-19.4142135623716,-7.41421356237335,-2.5));
#584=CARTESIAN_POINT('Origin',(-18.,-8.82842712474799,-2.5));
#585=CARTESIAN_POINT('',(7.41421356237424,19.4142135623724,-2.5));
#586=CARTESIAN_POINT('',(7.41421356237424,19.4142135623724,-2.5));
#587=CARTESIAN_POINT('',(8.82842712474759,19.9999999999992,-2.5));
#588=CARTESIAN_POINT('Origin',(8.82842712474715,17.9999999999991,-2.5));
#589=CARTESIAN_POINT('',(18.0000000000009,19.9999999999992,-2.5));
#590=CARTESIAN_POINT('Origin',(-18.,-8.82842712474799,0.));
#591=CARTESIAN_POINT('',(-19.4142135623716,-7.41421356237335,0.));
#592=CARTESIAN_POINT('Origin',(7.41421356237424,19.4142135623724,0.));
#593=CARTESIAN_POINT('',(7.41421356237424,19.4142135623724,0.));
#594=CARTESIAN_POINT('Origin',(8.82842712474715,17.9999999999991,0.));
#595=CARTESIAN_POINT('',(8.82842712474759,19.9999999999992,0.));
#596=CARTESIAN_POINT('Origin',(18.0000000000009,19.9999999999992,0.));
#597=CARTESIAN_POINT('',(18.0000000000009,19.9999999999992,0.));
#598=CARTESIAN_POINT('Origin',(18.0000000000009,17.9999999999992,0.));
#599=UNCERTAINTY_MEASURE_WITH_UNIT(LENGTH_MEASURE(0.01),#603,
'DISTANCE_ACCURACY_VALUE',
'Maximum model space distance between geometric entities at asserted c
onnectivities');
#600=UNCERTAINTY_MEASURE_WITH_UNIT(LENGTH_MEASURE(0.01),#603,
'DISTANCE_ACCURACY_VALUE',
'Maximum model space distance between geometric entities at asserted c
onnectivities');
#601=(
GEOMETRIC_REPRESENTATION_CONTEXT(3)
GLOBAL_UNCERTAINTY_ASSIGNED_CONTEXT((#599))
GLOBAL_UNIT_ASSIGNED_CONTEXT((#603,#605,#606))
REPRESENTATION_CONTEXT('','3D')
);
#602=(
GEOMETRIC_REPRESENTATION_CONTEXT(3)
GLOBAL_UNCERTAINTY_ASSIGNED_CONTEXT((#600))
GLOBAL_UNIT_ASSIGNED_CONTEXT((#603,#605,#606))
REPRESENTATION_CONTEXT('','3D')
);
#603=(
LENGTH_UNIT()
NAMED_UNIT(*)
SI_UNIT(.MILLI.,.METRE.)
);
#604=(
LENGTH_UNIT()
NAMED_UNIT(*)
SI_UNIT(.CENTI.,.METRE.)
);
#605=(
NAMED_UNIT(*)
PLANE_ANGLE_UNIT()
SI_UNIT($,.RADIAN.)
);
#606=(
NAMED_UNIT(*)
SI_UNIT($,.STERADIAN.)
SOLID_ANGLE_UNIT()
);
#607=SHAPE_DEFINITION_REPRESENTATION(#608,#609);
#608=PRODUCT_DEFINITION_SHAPE('',$,#611);
#609=SHAPE_REPRESENTATION('',(#352),#601);
#610=PRODUCT_DEFINITION_CONTEXT('part definition',#615,'design');
#611=PRODUCT_DEFINITION('CC40-40T','CC40-40T',#612,#610);
#612=PRODUCT_DEFINITION_FORMATION('A00',$,#617);
#613=PRODUCT_RELATED_PRODUCT_CATEGORY('CC40-40T','CC40-40T',(#617));
#614=APPLICATION_PROTOCOL_DEFINITION('international standard',
'automotive_design',2009,#615);
#615=APPLICATION_CONTEXT(
'Core Data for Automotive Mechanical Design Process');
#616=PRODUCT_CONTEXT('part definition',#615,'mechanical');
#617=PRODUCT('CC40-40T','CC40-40T','Tappo 40x40 45 gradi',(#616));
#618=PRESENTATION_STYLE_ASSIGNMENT((#619));
#619=SURFACE_STYLE_USAGE(.BOTH.,#622);
#620=SURFACE_STYLE_RENDERING_WITH_PROPERTIES($,#626,(#621));
#621=SURFACE_STYLE_TRANSPARENT(0.);
#622=SURFACE_SIDE_STYLE('',(#623,#620));
#623=SURFACE_STYLE_FILL_AREA(#624);
#624=FILL_AREA_STYLE('',(#625));
#625=FILL_AREA_STYLE_COLOUR('',#626);
#626=COLOUR_RGB('',0.0196078431372549,0.0196078431372549,0.0196078431372549);
ENDSEC;
END-ISO-10303-21;
