ISO-10303-21;
HEADER;
/* Generated by software containing ST-Developer
 * from STEP Tools, Inc. (www.steptools.com) 
 */

FILE_DESCRIPTION(
/* description */ ('Tappo 40x40 raggiato'),
/* implementation_level */ '2;1');

FILE_NAME(
/* name */ 'C:\\Users\\Stefan.Nesic\\Desktop\\01010STEP\\CC40-40R.stp',

/* time_stamp */ '2022-06-17T14:02:18+02:00',
/* author */ ('USER'),
/* organization */ ('Microsoft'),
/* preprocessor_version */ 'ST-DEVELOPER v18.1',
/* originating_system */ 'Autodesk Inventor 2021',
/* authorisation */ '');

FILE_SCHEMA (('AUTOMOTIVE_DESIGN { 1 0 10303 214 3 1 1 }'));
ENDSEC;

DATA;
#10=MECHANICAL_DESIGN_GEOMETRIC_PRESENTATION_REPRESENTATION('',(#13),#619);
#11=SHAPE_REPRESENTATION_RELATIONSHIP('SRR','None',#626,#12);
#12=ADVANCED_BREP_SHAPE_REPRESENTATION('',(#14),#618);
#13=STYLED_ITEM('',(#635),#14);
#14=MANIFOLD_SOLID_BREP('Solido1',#344);
#15=FACE_BOUND('',#68,.T.);
#16=FACE_BOUND('',#69,.T.);
#17=FACE_BOUND('',#74,.T.);
#18=FACE_BOUND('',#83,.T.);
#19=PLANE('',#379);
#20=PLANE('',#385);
#21=PLANE('',#386);
#22=PLANE('',#387);
#23=PLANE('',#393);
#24=PLANE('',#400);
#25=PLANE('',#401);
#26=PLANE('',#403);
#27=PLANE('',#404);
#28=PLANE('',#405);
#29=CYLINDRICAL_SURFACE('',#370,1.5);
#30=CYLINDRICAL_SURFACE('',#372,2.5);
#31=CYLINDRICAL_SURFACE('',#374,4.5);
#32=CYLINDRICAL_SURFACE('',#377,6.);
#33=CYLINDRICAL_SURFACE('',#382,40.);
#34=CYLINDRICAL_SURFACE('',#397,2.);
#35=CYLINDRICAL_SURFACE('',#398,2.);
#36=CYLINDRICAL_SURFACE('',#399,2.);
#37=CYLINDRICAL_SURFACE('',#402,38.);
#38=CYLINDRICAL_SURFACE('',#406,0.5);
#39=FACE_OUTER_BOUND('',#61,.T.);
#40=FACE_OUTER_BOUND('',#62,.T.);
#41=FACE_OUTER_BOUND('',#63,.T.);
#42=FACE_OUTER_BOUND('',#64,.T.);
#43=FACE_OUTER_BOUND('',#65,.T.);
#44=FACE_OUTER_BOUND('',#66,.T.);
#45=FACE_OUTER_BOUND('',#67,.T.);
#46=FACE_OUTER_BOUND('',#70,.T.);
#47=FACE_OUTER_BOUND('',#71,.T.);
#48=FACE_OUTER_BOUND('',#72,.T.);
#49=FACE_OUTER_BOUND('',#73,.T.);
#50=FACE_OUTER_BOUND('',#75,.T.);
#51=FACE_OUTER_BOUND('',#76,.T.);
#52=FACE_OUTER_BOUND('',#77,.T.);
#53=FACE_OUTER_BOUND('',#78,.T.);
#54=FACE_OUTER_BOUND('',#79,.T.);
#55=FACE_OUTER_BOUND('',#80,.T.);
#56=FACE_OUTER_BOUND('',#81,.T.);
#57=FACE_OUTER_BOUND('',#82,.T.);
#58=FACE_OUTER_BOUND('',#84,.T.);
#59=FACE_OUTER_BOUND('',#85,.T.);
#60=FACE_OUTER_BOUND('',#86,.T.);
#61=EDGE_LOOP('',(#230,#231,#232,#233));
#62=EDGE_LOOP('',(#234,#235,#236,#237));
#63=EDGE_LOOP('',(#238,#239,#240,#241));
#64=EDGE_LOOP('',(#242,#243,#244,#245));
#65=EDGE_LOOP('',(#246,#247,#248,#249));
#66=EDGE_LOOP('',(#250,#251,#252,#253));
#67=EDGE_LOOP('',(#254,#255,#256,#257));
#68=EDGE_LOOP('',(#258));
#69=EDGE_LOOP('',(#259));
#70=EDGE_LOOP('',(#260,#261,#262,#263));
#71=EDGE_LOOP('',(#264,#265,#266,#267));
#72=EDGE_LOOP('',(#268,#269,#270,#271));
#73=EDGE_LOOP('',(#272,#273,#274,#275,#276,#277));
#74=EDGE_LOOP('',(#278,#279,#280,#281));
#75=EDGE_LOOP('',(#282,#283,#284,#285,#286,#287));
#76=EDGE_LOOP('',(#288,#289,#290,#291));
#77=EDGE_LOOP('',(#292,#293,#294,#295));
#78=EDGE_LOOP('',(#296,#297,#298,#299));
#79=EDGE_LOOP('',(#300,#301,#302,#303));
#80=EDGE_LOOP('',(#304,#305,#306,#307));
#81=EDGE_LOOP('',(#308,#309,#310,#311));
#82=EDGE_LOOP('',(#312));
#83=EDGE_LOOP('',(#313));
#84=EDGE_LOOP('',(#314));
#85=EDGE_LOOP('',(#315));
#86=EDGE_LOOP('',(#316,#317,#318,#319));
#87=LINE('',#524,#111);
#88=LINE('',#530,#112);
#89=LINE('',#534,#113);
#90=LINE('',#539,#114);
#91=LINE('',#544,#115);
#92=LINE('',#549,#116);
#93=LINE('',#553,#117);
#94=LINE('',#557,#118);
#95=LINE('',#564,#119);
#96=LINE('',#567,#120);
#97=LINE('',#571,#121);
#98=LINE('',#573,#122);
#99=LINE('',#575,#123);
#100=LINE('',#576,#124);
#101=LINE('',#580,#125);
#102=LINE('',#582,#126);
#103=LINE('',#584,#127);
#104=LINE('',#585,#128);
#105=LINE('',#594,#129);
#106=LINE('',#597,#130);
#107=LINE('',#606,#131);
#108=LINE('',#607,#132);
#109=LINE('',#609,#133);
#110=LINE('',#610,#134);
#111=VECTOR('',#413,4.99999999999999);
#112=VECTOR('',#420,1.5);
#113=VECTOR('',#425,1.5);
#114=VECTOR('',#432,2.5);
#115=VECTOR('',#437,4.5);
#116=VECTOR('',#444,6.);
#117=VECTOR('',#447,1000.);
#118=VECTOR('',#450,1000.);
#119=VECTOR('',#457,1000.);
#120=VECTOR('',#460,1000.);
#121=VECTOR('',#463,1000.);
#122=VECTOR('',#464,1000.);
#123=VECTOR('',#465,1000.);
#124=VECTOR('',#466,1000.);
#125=VECTOR('',#469,1000.);
#126=VECTOR('',#470,1000.);
#127=VECTOR('',#471,1000.);
#128=VECTOR('',#472,1000.);
#129=VECTOR('',#483,1000.);
#130=VECTOR('',#486,1000.);
#131=VECTOR('',#503,1000.);
#132=VECTOR('',#504,1000.);
#133=VECTOR('',#507,1000.);
#134=VECTOR('',#508,1000.);
#135=CIRCLE('',#365,6.);
#136=CIRCLE('',#366,4.99999999999999);
#137=CIRCLE('',#368,2.5);
#138=CIRCLE('',#369,1.5);
#139=CIRCLE('',#371,1.5);
#140=CIRCLE('',#373,2.5);
#141=CIRCLE('',#375,4.5);
#142=CIRCLE('',#376,4.5);
#143=CIRCLE('',#378,6.);
#144=CIRCLE('',#380,0.5);
#145=CIRCLE('',#381,38.);
#146=CIRCLE('',#383,40.);
#147=CIRCLE('',#384,40.);
#148=CIRCLE('',#388,2.);
#149=CIRCLE('',#389,2.);
#150=CIRCLE('',#390,2.);
#151=CIRCLE('',#391,38.);
#152=CIRCLE('',#392,0.5);
#153=CIRCLE('',#394,2.);
#154=CIRCLE('',#395,2.);
#155=CIRCLE('',#396,2.);
#156=VERTEX_POINT('',#521);
#157=VERTEX_POINT('',#523);
#158=VERTEX_POINT('',#527);
#159=VERTEX_POINT('',#529);
#160=VERTEX_POINT('',#533);
#161=VERTEX_POINT('',#537);
#162=VERTEX_POINT('',#541);
#163=VERTEX_POINT('',#543);
#164=VERTEX_POINT('',#547);
#165=VERTEX_POINT('',#551);
#166=VERTEX_POINT('',#552);
#167=VERTEX_POINT('',#554);
#168=VERTEX_POINT('',#556);
#169=VERTEX_POINT('',#560);
#170=VERTEX_POINT('',#561);
#171=VERTEX_POINT('',#563);
#172=VERTEX_POINT('',#565);
#173=VERTEX_POINT('',#569);
#174=VERTEX_POINT('',#570);
#175=VERTEX_POINT('',#572);
#176=VERTEX_POINT('',#574);
#177=VERTEX_POINT('',#578);
#178=VERTEX_POINT('',#579);
#179=VERTEX_POINT('',#581);
#180=VERTEX_POINT('',#583);
#181=VERTEX_POINT('',#590);
#182=VERTEX_POINT('',#591);
#183=VERTEX_POINT('',#593);
#184=VERTEX_POINT('',#595);
#185=EDGE_CURVE('',#156,#156,#135,.T.);
#186=EDGE_CURVE('',#156,#157,#87,.T.);
#187=EDGE_CURVE('',#157,#157,#136,.T.);
#188=EDGE_CURVE('',#158,#158,#137,.T.);
#189=EDGE_CURVE('',#158,#159,#88,.T.);
#190=EDGE_CURVE('',#159,#159,#138,.T.);
#191=EDGE_CURVE('',#159,#160,#89,.T.);
#192=EDGE_CURVE('',#160,#160,#139,.T.);
#193=EDGE_CURVE('',#161,#161,#140,.T.);
#194=EDGE_CURVE('',#161,#158,#90,.T.);
#195=EDGE_CURVE('',#162,#162,#141,.T.);
#196=EDGE_CURVE('',#162,#163,#91,.T.);
#197=EDGE_CURVE('',#163,#163,#142,.T.);
#198=EDGE_CURVE('',#164,#164,#143,.T.);
#199=EDGE_CURVE('',#164,#156,#92,.T.);
#200=EDGE_CURVE('',#165,#166,#93,.T.);
#201=EDGE_CURVE('',#166,#167,#144,.T.);
#202=EDGE_CURVE('',#167,#168,#94,.T.);
#203=EDGE_CURVE('',#168,#165,#145,.T.);
#204=EDGE_CURVE('',#169,#170,#146,.T.);
#205=EDGE_CURVE('',#169,#171,#95,.T.);
#206=EDGE_CURVE('',#171,#172,#147,.T.);
#207=EDGE_CURVE('',#172,#170,#96,.T.);
#208=EDGE_CURVE('',#173,#174,#97,.T.);
#209=EDGE_CURVE('',#174,#175,#98,.T.);
#210=EDGE_CURVE('',#176,#175,#99,.T.);
#211=EDGE_CURVE('',#176,#173,#100,.T.);
#212=EDGE_CURVE('',#177,#178,#101,.T.);
#213=EDGE_CURVE('',#177,#179,#102,.T.);
#214=EDGE_CURVE('',#179,#180,#103,.T.);
#215=EDGE_CURVE('',#180,#178,#104,.T.);
#216=EDGE_CURVE('',#175,#177,#148,.T.);
#217=EDGE_CURVE('',#178,#169,#149,.T.);
#218=EDGE_CURVE('',#170,#176,#150,.T.);
#219=EDGE_CURVE('',#181,#182,#151,.T.);
#220=EDGE_CURVE('',#183,#181,#105,.T.);
#221=EDGE_CURVE('',#183,#184,#152,.T.);
#222=EDGE_CURVE('',#182,#184,#106,.T.);
#223=EDGE_CURVE('',#179,#174,#153,.T.);
#224=EDGE_CURVE('',#173,#172,#154,.T.);
#225=EDGE_CURVE('',#171,#180,#155,.T.);
#226=EDGE_CURVE('',#167,#183,#107,.T.);
#227=EDGE_CURVE('',#168,#181,#108,.T.);
#228=EDGE_CURVE('',#184,#166,#109,.T.);
#229=EDGE_CURVE('',#165,#182,#110,.T.);
#230=ORIENTED_EDGE('',*,*,#185,.F.);
#231=ORIENTED_EDGE('',*,*,#186,.T.);
#232=ORIENTED_EDGE('',*,*,#187,.F.);
#233=ORIENTED_EDGE('',*,*,#186,.F.);
#234=ORIENTED_EDGE('',*,*,#188,.F.);
#235=ORIENTED_EDGE('',*,*,#189,.T.);
#236=ORIENTED_EDGE('',*,*,#190,.F.);
#237=ORIENTED_EDGE('',*,*,#189,.F.);
#238=ORIENTED_EDGE('',*,*,#190,.T.);
#239=ORIENTED_EDGE('',*,*,#191,.T.);
#240=ORIENTED_EDGE('',*,*,#192,.T.);
#241=ORIENTED_EDGE('',*,*,#191,.F.);
#242=ORIENTED_EDGE('',*,*,#193,.T.);
#243=ORIENTED_EDGE('',*,*,#194,.T.);
#244=ORIENTED_EDGE('',*,*,#188,.T.);
#245=ORIENTED_EDGE('',*,*,#194,.F.);
#246=ORIENTED_EDGE('',*,*,#195,.T.);
#247=ORIENTED_EDGE('',*,*,#196,.T.);
#248=ORIENTED_EDGE('',*,*,#197,.T.);
#249=ORIENTED_EDGE('',*,*,#196,.F.);
#250=ORIENTED_EDGE('',*,*,#198,.T.);
#251=ORIENTED_EDGE('',*,*,#199,.T.);
#252=ORIENTED_EDGE('',*,*,#185,.T.);
#253=ORIENTED_EDGE('',*,*,#199,.F.);
#254=ORIENTED_EDGE('',*,*,#200,.T.);
#255=ORIENTED_EDGE('',*,*,#201,.T.);
#256=ORIENTED_EDGE('',*,*,#202,.T.);
#257=ORIENTED_EDGE('',*,*,#203,.T.);
#258=ORIENTED_EDGE('',*,*,#198,.F.);
#259=ORIENTED_EDGE('',*,*,#193,.F.);
#260=ORIENTED_EDGE('',*,*,#204,.F.);
#261=ORIENTED_EDGE('',*,*,#205,.T.);
#262=ORIENTED_EDGE('',*,*,#206,.T.);
#263=ORIENTED_EDGE('',*,*,#207,.T.);
#264=ORIENTED_EDGE('',*,*,#208,.T.);
#265=ORIENTED_EDGE('',*,*,#209,.T.);
#266=ORIENTED_EDGE('',*,*,#210,.F.);
#267=ORIENTED_EDGE('',*,*,#211,.T.);
#268=ORIENTED_EDGE('',*,*,#212,.F.);
#269=ORIENTED_EDGE('',*,*,#213,.T.);
#270=ORIENTED_EDGE('',*,*,#214,.T.);
#271=ORIENTED_EDGE('',*,*,#215,.T.);
#272=ORIENTED_EDGE('',*,*,#210,.T.);
#273=ORIENTED_EDGE('',*,*,#216,.T.);
#274=ORIENTED_EDGE('',*,*,#212,.T.);
#275=ORIENTED_EDGE('',*,*,#217,.T.);
#276=ORIENTED_EDGE('',*,*,#204,.T.);
#277=ORIENTED_EDGE('',*,*,#218,.T.);
#278=ORIENTED_EDGE('',*,*,#219,.F.);
#279=ORIENTED_EDGE('',*,*,#220,.F.);
#280=ORIENTED_EDGE('',*,*,#221,.T.);
#281=ORIENTED_EDGE('',*,*,#222,.F.);
#282=ORIENTED_EDGE('',*,*,#214,.F.);
#283=ORIENTED_EDGE('',*,*,#223,.T.);
#284=ORIENTED_EDGE('',*,*,#208,.F.);
#285=ORIENTED_EDGE('',*,*,#224,.T.);
#286=ORIENTED_EDGE('',*,*,#206,.F.);
#287=ORIENTED_EDGE('',*,*,#225,.T.);
#288=ORIENTED_EDGE('',*,*,#216,.F.);
#289=ORIENTED_EDGE('',*,*,#209,.F.);
#290=ORIENTED_EDGE('',*,*,#223,.F.);
#291=ORIENTED_EDGE('',*,*,#213,.F.);
#292=ORIENTED_EDGE('',*,*,#217,.F.);
#293=ORIENTED_EDGE('',*,*,#215,.F.);
#294=ORIENTED_EDGE('',*,*,#225,.F.);
#295=ORIENTED_EDGE('',*,*,#205,.F.);
#296=ORIENTED_EDGE('',*,*,#218,.F.);
#297=ORIENTED_EDGE('',*,*,#207,.F.);
#298=ORIENTED_EDGE('',*,*,#224,.F.);
#299=ORIENTED_EDGE('',*,*,#211,.F.);
#300=ORIENTED_EDGE('',*,*,#202,.F.);
#301=ORIENTED_EDGE('',*,*,#226,.T.);
#302=ORIENTED_EDGE('',*,*,#220,.T.);
#303=ORIENTED_EDGE('',*,*,#227,.F.);
#304=ORIENTED_EDGE('',*,*,#222,.T.);
#305=ORIENTED_EDGE('',*,*,#228,.T.);
#306=ORIENTED_EDGE('',*,*,#200,.F.);
#307=ORIENTED_EDGE('',*,*,#229,.T.);
#308=ORIENTED_EDGE('',*,*,#219,.T.);
#309=ORIENTED_EDGE('',*,*,#229,.F.);
#310=ORIENTED_EDGE('',*,*,#203,.F.);
#311=ORIENTED_EDGE('',*,*,#227,.T.);
#312=ORIENTED_EDGE('',*,*,#187,.T.);
#313=ORIENTED_EDGE('',*,*,#195,.F.);
#314=ORIENTED_EDGE('',*,*,#197,.F.);
#315=ORIENTED_EDGE('',*,*,#192,.F.);
#316=ORIENTED_EDGE('',*,*,#201,.F.);
#317=ORIENTED_EDGE('',*,*,#228,.F.);
#318=ORIENTED_EDGE('',*,*,#221,.F.);
#319=ORIENTED_EDGE('',*,*,#226,.F.);
#320=CONICAL_SURFACE('',#364,4.99999999999999,0.785398163397448);
#321=CONICAL_SURFACE('',#367,1.5,0.785398163397442);
#322=ADVANCED_FACE('',(#39),#320,.T.);
#323=ADVANCED_FACE('',(#40),#321,.T.);
#324=ADVANCED_FACE('',(#41),#29,.F.);
#325=ADVANCED_FACE('',(#42),#30,.T.);
#326=ADVANCED_FACE('',(#43),#31,.F.);
#327=ADVANCED_FACE('',(#44),#32,.T.);
#328=ADVANCED_FACE('',(#45,#15,#16),#19,.T.);
#329=ADVANCED_FACE('',(#46),#33,.T.);
#330=ADVANCED_FACE('',(#47),#20,.F.);
#331=ADVANCED_FACE('',(#48),#21,.F.);
#332=ADVANCED_FACE('',(#49,#17),#22,.F.);
#333=ADVANCED_FACE('',(#50),#23,.T.);
#334=ADVANCED_FACE('',(#51),#34,.T.);
#335=ADVANCED_FACE('',(#52),#35,.T.);
#336=ADVANCED_FACE('',(#53),#36,.T.);
#337=ADVANCED_FACE('',(#54),#24,.F.);
#338=ADVANCED_FACE('',(#55),#25,.F.);
#339=ADVANCED_FACE('',(#56),#37,.F.);
#340=ADVANCED_FACE('',(#57,#18),#26,.T.);
#341=ADVANCED_FACE('',(#58),#27,.T.);
#342=ADVANCED_FACE('',(#59),#28,.T.);
#343=ADVANCED_FACE('',(#60),#38,.F.);
#344=CLOSED_SHELL('',(#322,#323,#324,#325,#326,#327,#328,#329,#330,#331,
#332,#333,#334,#335,#336,#337,#338,#339,#340,#341,#342,#343));
#345=DERIVED_UNIT_ELEMENT(#347,1.);
#346=DERIVED_UNIT_ELEMENT(#621,-3.);
#347=(
MASS_UNIT()
NAMED_UNIT(*)
SI_UNIT($,.GRAM.)
);
#348=DERIVED_UNIT((#345,#346));
#349=MEASURE_REPRESENTATION_ITEM('density measure',
POSITIVE_RATIO_MEASURE(0.952),#348);
#350=PROPERTY_DEFINITION_REPRESENTATION(#355,#352);
#351=PROPERTY_DEFINITION_REPRESENTATION(#356,#353);
#352=REPRESENTATION('material name',(#354),#618);
#353=REPRESENTATION('density',(#349),#618);
#354=DESCRIPTIVE_REPRESENTATION_ITEM('Polietilene, Alta densit\X\E0',
'Polietilene, Alta densit\X\E0');
#355=PROPERTY_DEFINITION('material property','material name',#628);
#356=PROPERTY_DEFINITION('material property','density of part',#628);
#357=DATE_TIME_ROLE('creation_date');
#358=APPLIED_DATE_AND_TIME_ASSIGNMENT(#359,#357,(#628));
#359=DATE_AND_TIME(#360,#361);
#360=CALENDAR_DATE(2014,25,6);
#361=LOCAL_TIME(0,0,0.,#362);
#362=COORDINATED_UNIVERSAL_TIME_OFFSET(0,0,.BEHIND.);
#363=AXIS2_PLACEMENT_3D('placement',#519,#407,#408);
#364=AXIS2_PLACEMENT_3D('',#520,#409,#410);
#365=AXIS2_PLACEMENT_3D('',#522,#411,#412);
#366=AXIS2_PLACEMENT_3D('',#525,#414,#415);
#367=AXIS2_PLACEMENT_3D('',#526,#416,#417);
#368=AXIS2_PLACEMENT_3D('',#528,#418,#419);
#369=AXIS2_PLACEMENT_3D('',#531,#421,#422);
#370=AXIS2_PLACEMENT_3D('',#532,#423,#424);
#371=AXIS2_PLACEMENT_3D('',#535,#426,#427);
#372=AXIS2_PLACEMENT_3D('',#536,#428,#429);
#373=AXIS2_PLACEMENT_3D('',#538,#430,#431);
#374=AXIS2_PLACEMENT_3D('',#540,#433,#434);
#375=AXIS2_PLACEMENT_3D('',#542,#435,#436);
#376=AXIS2_PLACEMENT_3D('',#545,#438,#439);
#377=AXIS2_PLACEMENT_3D('',#546,#440,#441);
#378=AXIS2_PLACEMENT_3D('',#548,#442,#443);
#379=AXIS2_PLACEMENT_3D('',#550,#445,#446);
#380=AXIS2_PLACEMENT_3D('',#555,#448,#449);
#381=AXIS2_PLACEMENT_3D('',#558,#451,#452);
#382=AXIS2_PLACEMENT_3D('',#559,#453,#454);
#383=AXIS2_PLACEMENT_3D('',#562,#455,#456);
#384=AXIS2_PLACEMENT_3D('',#566,#458,#459);
#385=AXIS2_PLACEMENT_3D('',#568,#461,#462);
#386=AXIS2_PLACEMENT_3D('',#577,#467,#468);
#387=AXIS2_PLACEMENT_3D('',#586,#473,#474);
#388=AXIS2_PLACEMENT_3D('',#587,#475,#476);
#389=AXIS2_PLACEMENT_3D('',#588,#477,#478);
#390=AXIS2_PLACEMENT_3D('',#589,#479,#480);
#391=AXIS2_PLACEMENT_3D('',#592,#481,#482);
#392=AXIS2_PLACEMENT_3D('',#596,#484,#485);
#393=AXIS2_PLACEMENT_3D('',#598,#487,#488);
#394=AXIS2_PLACEMENT_3D('',#599,#489,#490);
#395=AXIS2_PLACEMENT_3D('',#600,#491,#492);
#396=AXIS2_PLACEMENT_3D('',#601,#493,#494);
#397=AXIS2_PLACEMENT_3D('',#602,#495,#496);
#398=AXIS2_PLACEMENT_3D('',#603,#497,#498);
#399=AXIS2_PLACEMENT_3D('',#604,#499,#500);
#400=AXIS2_PLACEMENT_3D('',#605,#501,#502);
#401=AXIS2_PLACEMENT_3D('',#608,#505,#506);
#402=AXIS2_PLACEMENT_3D('',#611,#509,#510);
#403=AXIS2_PLACEMENT_3D('',#612,#511,#512);
#404=AXIS2_PLACEMENT_3D('',#613,#513,#514);
#405=AXIS2_PLACEMENT_3D('',#614,#515,#516);
#406=AXIS2_PLACEMENT_3D('',#615,#517,#518);
#407=DIRECTION('axis',(0.,0.,1.));
#408=DIRECTION('refdir',(1.,0.,0.));
#409=DIRECTION('center_axis',(0.,0.,-1.));
#410=DIRECTION('ref_axis',(-1.,0.,0.));
#411=DIRECTION('center_axis',(0.,0.,-1.));
#412=DIRECTION('ref_axis',(1.,0.,0.));
#413=DIRECTION('',(-0.707106781186547,8.65956056235493E-17,0.707106781186547));
#414=DIRECTION('center_axis',(0.,0.,1.));
#415=DIRECTION('ref_axis',(1.,0.,0.));
#416=DIRECTION('center_axis',(0.,0.,-1.));
#417=DIRECTION('ref_axis',(-1.,0.,0.));
#418=DIRECTION('center_axis',(0.,0.,-1.));
#419=DIRECTION('ref_axis',(1.,0.,0.));
#420=DIRECTION('',(-0.707106781186543,8.65956056235488E-17,0.707106781186552));
#421=DIRECTION('center_axis',(0.,0.,1.));
#422=DIRECTION('ref_axis',(1.,0.,0.));
#423=DIRECTION('center_axis',(0.,0.,-1.));
#424=DIRECTION('ref_axis',(-1.,0.,0.));
#425=DIRECTION('',(0.,0.,-1.));
#426=DIRECTION('center_axis',(0.,0.,-1.));
#427=DIRECTION('ref_axis',(1.,0.,0.));
#428=DIRECTION('center_axis',(0.,0.,-1.));
#429=DIRECTION('ref_axis',(-1.,0.,0.));
#430=DIRECTION('center_axis',(0.,0.,1.));
#431=DIRECTION('ref_axis',(1.,0.,0.));
#432=DIRECTION('',(0.,0.,1.));
#433=DIRECTION('center_axis',(0.,0.,-1.));
#434=DIRECTION('ref_axis',(-1.,0.,0.));
#435=DIRECTION('center_axis',(0.,0.,1.));
#436=DIRECTION('ref_axis',(1.,0.,0.));
#437=DIRECTION('',(0.,0.,-1.));
#438=DIRECTION('center_axis',(0.,0.,-1.));
#439=DIRECTION('ref_axis',(1.,0.,0.));
#440=DIRECTION('center_axis',(0.,0.,-1.));
#441=DIRECTION('ref_axis',(-1.,0.,0.));
#442=DIRECTION('center_axis',(0.,0.,1.));
#443=DIRECTION('ref_axis',(1.,0.,0.));
#444=DIRECTION('',(0.,0.,1.));
#445=DIRECTION('center_axis',(0.,0.,1.));
#446=DIRECTION('ref_axis',(1.,0.,0.));
#447=DIRECTION('',(0.,-1.,0.));
#448=DIRECTION('center_axis',(0.,0.,1.));
#449=DIRECTION('ref_axis',(1.,0.,0.));
#450=DIRECTION('',(1.,0.,0.));
#451=DIRECTION('center_axis',(0.,0.,1.));
#452=DIRECTION('ref_axis',(1.,0.,0.));
#453=DIRECTION('center_axis',(0.,0.,-1.));
#454=DIRECTION('ref_axis',(-1.,0.,0.));
#455=DIRECTION('center_axis',(0.,0.,1.));
#456=DIRECTION('ref_axis',(-1.,0.,0.));
#457=DIRECTION('',(0.,0.,-1.));
#458=DIRECTION('center_axis',(0.,0.,1.));
#459=DIRECTION('ref_axis',(-1.,0.,0.));
#460=DIRECTION('',(0.,0.,1.));
#461=DIRECTION('center_axis',(1.,0.,0.));
#462=DIRECTION('ref_axis',(0.,0.,-1.));
#463=DIRECTION('',(0.,-1.,0.));
#464=DIRECTION('',(0.,0.,1.));
#465=DIRECTION('',(0.,-1.,0.));
#466=DIRECTION('',(0.,0.,-1.));
#467=DIRECTION('center_axis',(0.,1.,0.));
#468=DIRECTION('ref_axis',(0.,0.,1.));
#469=DIRECTION('',(1.,0.,0.));
#470=DIRECTION('',(0.,0.,-1.));
#471=DIRECTION('',(1.,0.,0.));
#472=DIRECTION('',(0.,0.,1.));
#473=DIRECTION('center_axis',(0.,0.,-1.));
#474=DIRECTION('ref_axis',(-1.,0.,0.));
#475=DIRECTION('center_axis',(0.,0.,1.));
#476=DIRECTION('ref_axis',(-1.,0.,0.));
#477=DIRECTION('center_axis',(0.,0.,1.));
#478=DIRECTION('ref_axis',(-1.,0.,0.));
#479=DIRECTION('center_axis',(0.,0.,1.));
#480=DIRECTION('ref_axis',(-1.,1.73472347597681E-15,0.));
#481=DIRECTION('center_axis',(0.,0.,1.));
#482=DIRECTION('ref_axis',(1.,0.,0.));
#483=DIRECTION('',(1.,0.,0.));
#484=DIRECTION('center_axis',(0.,0.,-1.));
#485=DIRECTION('ref_axis',(-1.,0.,0.));
#486=DIRECTION('',(0.,-1.,0.));
#487=DIRECTION('center_axis',(0.,0.,-1.));
#488=DIRECTION('ref_axis',(-1.,0.,0.));
#489=DIRECTION('center_axis',(0.,0.,-1.));
#490=DIRECTION('ref_axis',(-1.,0.,0.));
#491=DIRECTION('center_axis',(0.,0.,-1.));
#492=DIRECTION('ref_axis',(-1.,0.,0.));
#493=DIRECTION('center_axis',(0.,0.,-1.));
#494=DIRECTION('ref_axis',(-1.,0.,0.));
#495=DIRECTION('center_axis',(0.,0.,-1.));
#496=DIRECTION('ref_axis',(-1.,0.,0.));
#497=DIRECTION('center_axis',(0.,0.,-1.));
#498=DIRECTION('ref_axis',(0.725476250110012,-0.688247201611685,0.));
#499=DIRECTION('center_axis',(0.,0.,-1.));
#500=DIRECTION('ref_axis',(-1.,0.,0.));
#501=DIRECTION('center_axis',(0.,-1.,0.));
#502=DIRECTION('ref_axis',(0.,0.,-1.));
#503=DIRECTION('',(0.,0.,1.));
#504=DIRECTION('',(0.,0.,1.));
#505=DIRECTION('center_axis',(-1.,0.,0.));
#506=DIRECTION('ref_axis',(0.,0.,1.));
#507=DIRECTION('',(0.,0.,-1.));
#508=DIRECTION('',(0.,0.,1.));
#509=DIRECTION('center_axis',(0.,0.,1.));
#510=DIRECTION('ref_axis',(1.,0.,0.));
#511=DIRECTION('center_axis',(0.,0.,1.));
#512=DIRECTION('ref_axis',(1.,0.,0.));
#513=DIRECTION('center_axis',(0.,0.,1.));
#514=DIRECTION('ref_axis',(1.,0.,0.));
#515=DIRECTION('center_axis',(0.,0.,1.));
#516=DIRECTION('ref_axis',(1.,0.,0.));
#517=DIRECTION('center_axis',(0.,0.,-1.));
#518=DIRECTION('ref_axis',(-1.,0.,0.));
#519=CARTESIAN_POINT('',(0.,0.,0.));
#520=CARTESIAN_POINT('Origin',(-24.9444444444444,12.2952380952381,15.));
#521=CARTESIAN_POINT('',(-18.9444444444444,12.2952380952381,14.));
#522=CARTESIAN_POINT('Origin',(-24.9444444444444,12.2952380952381,14.));
#523=CARTESIAN_POINT('',(-19.9444444444444,12.2952380952381,15.));
#524=CARTESIAN_POINT('',(-19.9444444444444,12.2952380952381,15.));
#525=CARTESIAN_POINT('Origin',(-24.9444444444444,12.2952380952381,15.));
#526=CARTESIAN_POINT('Origin',(-39.9444444444444,-2.70476190476191,15.));
#527=CARTESIAN_POINT('',(-37.4444444444444,-2.70476190476191,14.));
#528=CARTESIAN_POINT('Origin',(-39.9444444444444,-2.70476190476191,14.));
#529=CARTESIAN_POINT('',(-38.4444444444444,-2.70476190476191,15.));
#530=CARTESIAN_POINT('',(-38.4444444444444,-2.70476190476191,15.));
#531=CARTESIAN_POINT('Origin',(-39.9444444444444,-2.70476190476191,15.));
#532=CARTESIAN_POINT('Origin',(-39.9444444444444,-2.70476190476191,15.));
#533=CARTESIAN_POINT('',(-38.4444444444444,-2.70476190476191,3.));
#534=CARTESIAN_POINT('',(-38.4444444444444,-2.70476190476191,15.));
#535=CARTESIAN_POINT('Origin',(-39.9444444444444,-2.70476190476191,3.));
#536=CARTESIAN_POINT('Origin',(-39.9444444444444,-2.70476190476191,15.));
#537=CARTESIAN_POINT('',(-37.4444444444444,-2.70476190476191,3.));
#538=CARTESIAN_POINT('Origin',(-39.9444444444444,-2.70476190476191,3.));
#539=CARTESIAN_POINT('',(-37.4444444444444,-2.70476190476191,15.));
#540=CARTESIAN_POINT('Origin',(-24.9444444444444,12.2952380952381,15.));
#541=CARTESIAN_POINT('',(-20.4444444444444,12.2952380952381,15.));
#542=CARTESIAN_POINT('Origin',(-24.9444444444444,12.2952380952381,15.));
#543=CARTESIAN_POINT('',(-20.4444444444444,12.2952380952381,3.));
#544=CARTESIAN_POINT('',(-20.4444444444444,12.2952380952381,15.));
#545=CARTESIAN_POINT('Origin',(-24.9444444444444,12.2952380952381,3.));
#546=CARTESIAN_POINT('Origin',(-24.9444444444444,12.2952380952381,15.));
#547=CARTESIAN_POINT('',(-18.9444444444444,12.2952380952381,3.));
#548=CARTESIAN_POINT('Origin',(-24.9444444444444,12.2952380952381,3.));
#549=CARTESIAN_POINT('',(-18.9444444444444,12.2952380952381,15.));
#550=CARTESIAN_POINT('Origin',(-44.9444444444444,-7.70476190476192,3.));
#551=CARTESIAN_POINT('',(-42.9444444444444,30.2425700172586,3.));
#552=CARTESIAN_POINT('',(-42.9444444444444,-5.20476190476191,3.));
#553=CARTESIAN_POINT('',(-42.9444444444444,30.2425700172586,3.));
#554=CARTESIAN_POINT('',(-42.4444444444444,-5.70476190476191,3.));
#555=CARTESIAN_POINT('Origin',(-42.4444444444444,-5.20476190476191,3.));
#556=CARTESIAN_POINT('',(-6.99711252242388,-5.70476190476191,3.));
#557=CARTESIAN_POINT('',(-42.9444444444444,-5.70476190476191,3.));
#558=CARTESIAN_POINT('Origin',(-44.9444444444444,-7.70476190476192,3.));
#559=CARTESIAN_POINT('Origin',(-44.9444444444444,-7.70476190476192,5.));
#560=CARTESIAN_POINT('',(-4.99988452652806,-5.59949874686717,5.));
#561=CARTESIAN_POINT('',(-42.8391812865497,32.2397980131545,5.));
#562=CARTESIAN_POINT('Origin',(-44.9444444444444,-7.70476190476192,5.));
#563=CARTESIAN_POINT('',(-4.99988452652806,-5.59949874686717,0.));
#564=CARTESIAN_POINT('',(-4.99988452652806,-5.59949874686717,5.));
#565=CARTESIAN_POINT('',(-42.8391812865497,32.2397980131545,0.));
#566=CARTESIAN_POINT('Origin',(-44.9444444444444,-7.70476190476192,0.));
#567=CARTESIAN_POINT('',(-42.8391812865497,32.2397980131545,5.));
#568=CARTESIAN_POINT('Origin',(-44.9444444444444,32.2952380952381,5.));
#569=CARTESIAN_POINT('',(-44.9444444444444,30.2425700172586,0.));
#570=CARTESIAN_POINT('',(-44.9444444444444,-5.70476190476191,0.));
#571=CARTESIAN_POINT('',(-44.9444444444444,32.2952380952381,0.));
#572=CARTESIAN_POINT('',(-44.9444444444444,-5.70476190476191,5.));
#573=CARTESIAN_POINT('',(-44.9444444444444,-5.70476190476191,5.));
#574=CARTESIAN_POINT('',(-44.9444444444444,30.2425700172586,5.));
#575=CARTESIAN_POINT('',(-44.9444444444444,32.2952380952381,5.));
#576=CARTESIAN_POINT('',(-44.9444444444444,30.2425700172586,5.));
#577=CARTESIAN_POINT('Origin',(-44.9444444444444,-7.70476190476191,5.));
#578=CARTESIAN_POINT('',(-42.9444444444444,-7.70476190476191,5.));
#579=CARTESIAN_POINT('',(-6.99711252242388,-7.70476190476191,5.));
#580=CARTESIAN_POINT('',(-44.9444444444444,-7.70476190476191,5.));
#581=CARTESIAN_POINT('',(-42.9444444444444,-7.70476190476191,0.));
#582=CARTESIAN_POINT('',(-42.9444444444444,-7.70476190476191,5.));
#583=CARTESIAN_POINT('',(-6.99711252242388,-7.70476190476191,0.));
#584=CARTESIAN_POINT('',(-44.9444444444444,-7.70476190476191,0.));
#585=CARTESIAN_POINT('',(-6.99711252242388,-7.70476190476191,5.));
#586=CARTESIAN_POINT('Origin',(-44.9444444444444,-7.70476190476192,5.));
#587=CARTESIAN_POINT('Origin',(-42.9444444444444,-5.70476190476191,5.));
#588=CARTESIAN_POINT('Origin',(-6.99711252242388,-5.70476190476191,5.));
#589=CARTESIAN_POINT('Origin',(-42.9444444444444,30.2425700172586,5.));
#590=CARTESIAN_POINT('',(-6.99711252242388,-5.70476190476191,5.));
#591=CARTESIAN_POINT('',(-42.9444444444444,30.2425700172586,5.));
#592=CARTESIAN_POINT('Origin',(-44.9444444444444,-7.70476190476192,5.));
#593=CARTESIAN_POINT('',(-42.4444444444444,-5.70476190476191,5.));
#594=CARTESIAN_POINT('',(-42.9444444444444,-5.70476190476191,5.));
#595=CARTESIAN_POINT('',(-42.9444444444444,-5.20476190476191,5.));
#596=CARTESIAN_POINT('Origin',(-42.4444444444444,-5.20476190476191,5.));
#597=CARTESIAN_POINT('',(-42.9444444444444,30.2425700172586,5.));
#598=CARTESIAN_POINT('Origin',(-44.9444444444444,-7.70476190476192,0.));
#599=CARTESIAN_POINT('Origin',(-42.9444444444444,-5.70476190476191,0.));
#600=CARTESIAN_POINT('Origin',(-42.9444444444444,30.2425700172586,0.));
#601=CARTESIAN_POINT('Origin',(-6.99711252242388,-5.70476190476191,0.));
#602=CARTESIAN_POINT('Origin',(-42.9444444444444,-5.70476190476191,5.));
#603=CARTESIAN_POINT('Origin',(-6.99711252242388,-5.70476190476191,5.));
#604=CARTESIAN_POINT('Origin',(-42.9444444444444,30.2425700172586,5.));
#605=CARTESIAN_POINT('Origin',(-42.9444444444444,-5.70476190476191,3.));
#606=CARTESIAN_POINT('',(-42.4444444444444,-5.70476190476191,5.));
#607=CARTESIAN_POINT('',(-6.99711252242388,-5.70476190476191,3.));
#608=CARTESIAN_POINT('Origin',(-42.9444444444444,30.2425700172586,3.));
#609=CARTESIAN_POINT('',(-42.9444444444444,-5.20476190476191,3.));
#610=CARTESIAN_POINT('',(-42.9444444444444,30.2425700172586,3.));
#611=CARTESIAN_POINT('Origin',(-44.9444444444444,-7.70476190476192,3.));
#612=CARTESIAN_POINT('Origin',(-24.9444444444444,12.2952380952381,15.));
#613=CARTESIAN_POINT('Origin',(-44.9444444444444,-7.70476190476192,3.));
#614=CARTESIAN_POINT('Origin',(-44.9444444444444,-7.70476190476192,3.));
#615=CARTESIAN_POINT('Origin',(-42.4444444444444,-5.20476190476191,3.));
#616=UNCERTAINTY_MEASURE_WITH_UNIT(LENGTH_MEASURE(0.01),#620,
'DISTANCE_ACCURACY_VALUE',
'Maximum model space distance between geometric entities at asserted c
onnectivities');
#617=UNCERTAINTY_MEASURE_WITH_UNIT(LENGTH_MEASURE(0.01),#620,
'DISTANCE_ACCURACY_VALUE',
'Maximum model space distance between geometric entities at asserted c
onnectivities');
#618=(
GEOMETRIC_REPRESENTATION_CONTEXT(3)
GLOBAL_UNCERTAINTY_ASSIGNED_CONTEXT((#616))
GLOBAL_UNIT_ASSIGNED_CONTEXT((#620,#622,#623))
REPRESENTATION_CONTEXT('','3D')
);
#619=(
GEOMETRIC_REPRESENTATION_CONTEXT(3)
GLOBAL_UNCERTAINTY_ASSIGNED_CONTEXT((#617))
GLOBAL_UNIT_ASSIGNED_CONTEXT((#620,#622,#623))
REPRESENTATION_CONTEXT('','3D')
);
#620=(
LENGTH_UNIT()
NAMED_UNIT(*)
SI_UNIT(.MILLI.,.METRE.)
);
#621=(
LENGTH_UNIT()
NAMED_UNIT(*)
SI_UNIT(.CENTI.,.METRE.)
);
#622=(
NAMED_UNIT(*)
PLANE_ANGLE_UNIT()
SI_UNIT($,.RADIAN.)
);
#623=(
NAMED_UNIT(*)
SI_UNIT($,.STERADIAN.)
SOLID_ANGLE_UNIT()
);
#624=SHAPE_DEFINITION_REPRESENTATION(#625,#626);
#625=PRODUCT_DEFINITION_SHAPE('',$,#628);
#626=SHAPE_REPRESENTATION('',(#363),#618);
#627=PRODUCT_DEFINITION_CONTEXT('part definition',#632,'design');
#628=PRODUCT_DEFINITION('CC40-40R','CC40-40R',#629,#627);
#629=PRODUCT_DEFINITION_FORMATION('A00',$,#634);
#630=PRODUCT_RELATED_PRODUCT_CATEGORY('CC40-40R','CC40-40R',(#634));
#631=APPLICATION_PROTOCOL_DEFINITION('international standard',
'automotive_design',2009,#632);
#632=APPLICATION_CONTEXT(
'Core Data for Automotive Mechanical Design Process');
#633=PRODUCT_CONTEXT('part definition',#632,'mechanical');
#634=PRODUCT('CC40-40R','CC40-40R','Tappo 40x40 raggiato',(#633));
#635=PRESENTATION_STYLE_ASSIGNMENT((#636));
#636=SURFACE_STYLE_USAGE(.BOTH.,#639);
#637=SURFACE_STYLE_RENDERING_WITH_PROPERTIES($,#643,(#638));
#638=SURFACE_STYLE_TRANSPARENT(0.);
#639=SURFACE_SIDE_STYLE('',(#640,#637));
#640=SURFACE_STYLE_FILL_AREA(#641);
#641=FILL_AREA_STYLE('',(#642));
#642=FILL_AREA_STYLE_COLOUR('',#643);
#643=COLOUR_RGB('',0.0196078431372549,0.0196078431372549,0.0196078431372549);
ENDSEC;
END-ISO-10303-21;
