ISO-10303-21;
HEADER;
/* Generated by software containing ST-Developer
 * from STEP Tools, Inc. (www.steptools.com) 
 */

FILE_DESCRIPTION(
/* description */ ('Piastrina di fissaggio staffa BP'),
/* implementation_level */ '2;1');

FILE_NAME(
/* name */ 'C:\\omnitec\\Desktop\\Piedini\\BP00.stp',
/* time_stamp */ '2021-02-19T11:48:30+01:00',
/* author */ ('omnitec'),
/* organization */ ('Microsoft'),
/* preprocessor_version */ 'ST-DEVELOPER v18.1',
/* originating_system */ 'Autodesk Inventor 2021',
/* authorisation */ '');

FILE_SCHEMA (('AUTOMOTIVE_DESIGN { 1 0 10303 214 3 1 1 }'));
ENDSEC;

DATA;
#10=MECHANICAL_DESIGN_GEOMETRIC_PRESENTATION_REPRESENTATION('',(#13),#535);
#11=SHAPE_REPRESENTATION_RELATIONSHIP('SRR','None',#542,#12);
#12=ADVANCED_BREP_SHAPE_REPRESENTATION('',(#14),#534);
#13=STYLED_ITEM('',(#551),#14);
#14=MANIFOLD_SOLID_BREP('Solido1',#301);
#15=PLANE('',#324);
#16=PLANE('',#325);
#17=PLANE('',#326);
#18=PLANE('',#327);
#19=PLANE('',#328);
#20=PLANE('',#336);
#21=PLANE('',#344);
#22=PLANE('',#345);
#23=FACE_OUTER_BOUND('',#39,.T.);
#24=FACE_OUTER_BOUND('',#40,.T.);
#25=FACE_OUTER_BOUND('',#41,.T.);
#26=FACE_OUTER_BOUND('',#42,.T.);
#27=FACE_OUTER_BOUND('',#43,.T.);
#28=FACE_OUTER_BOUND('',#44,.T.);
#29=FACE_OUTER_BOUND('',#45,.T.);
#30=FACE_OUTER_BOUND('',#46,.T.);
#31=FACE_OUTER_BOUND('',#47,.T.);
#32=FACE_OUTER_BOUND('',#48,.T.);
#33=FACE_OUTER_BOUND('',#49,.T.);
#34=FACE_OUTER_BOUND('',#50,.T.);
#35=FACE_OUTER_BOUND('',#51,.T.);
#36=FACE_OUTER_BOUND('',#52,.T.);
#37=FACE_OUTER_BOUND('',#53,.T.);
#38=FACE_OUTER_BOUND('',#54,.T.);
#39=EDGE_LOOP('',(#193,#194,#195,#196));
#40=EDGE_LOOP('',(#197,#198,#199,#200));
#41=EDGE_LOOP('',(#201,#202,#203,#204));
#42=EDGE_LOOP('',(#205,#206,#207,#208));
#43=EDGE_LOOP('',(#209,#210,#211,#212));
#44=EDGE_LOOP('',(#213,#214,#215,#216,#217,#218,#219,#220,#221,#222,#223,
#224,#225,#226));
#45=EDGE_LOOP('',(#227,#228,#229,#230,#231,#232,#233,#234,#235,#236,#237,
#238,#239,#240));
#46=EDGE_LOOP('',(#241,#242,#243,#244));
#47=EDGE_LOOP('',(#245,#246,#247,#248));
#48=EDGE_LOOP('',(#249,#250,#251,#252));
#49=EDGE_LOOP('',(#253,#254,#255,#256));
#50=EDGE_LOOP('',(#257,#258,#259,#260));
#51=EDGE_LOOP('',(#261,#262,#263,#264));
#52=EDGE_LOOP('',(#265,#266,#267,#268));
#53=EDGE_LOOP('',(#269,#270,#271,#272));
#54=EDGE_LOOP('',(#273,#274,#275,#276));
#55=LINE('',#451,#81);
#56=LINE('',#454,#82);
#57=LINE('',#458,#83);
#58=LINE('',#460,#84);
#59=LINE('',#462,#85);
#60=LINE('',#463,#86);
#61=LINE('',#467,#87);
#62=LINE('',#469,#88);
#63=LINE('',#471,#89);
#64=LINE('',#472,#90);
#65=LINE('',#476,#91);
#66=LINE('',#478,#92);
#67=LINE('',#480,#93);
#68=LINE('',#481,#94);
#69=LINE('',#485,#95);
#70=LINE('',#487,#96);
#71=LINE('',#489,#97);
#72=LINE('',#490,#98);
#73=LINE('',#494,#99);
#74=LINE('',#499,#100);
#75=LINE('',#509,#101);
#76=LINE('',#517,#102);
#77=LINE('',#520,#103);
#78=LINE('',#521,#104);
#79=LINE('',#523,#105);
#80=LINE('',#524,#106);
#81=VECTOR('',#359,1000.);
#82=VECTOR('',#362,1000.);
#83=VECTOR('',#365,1000.);
#84=VECTOR('',#366,1000.);
#85=VECTOR('',#367,1000.);
#86=VECTOR('',#368,1000.);
#87=VECTOR('',#371,1000.);
#88=VECTOR('',#372,1000.);
#89=VECTOR('',#373,1000.);
#90=VECTOR('',#374,1000.);
#91=VECTOR('',#377,1000.);
#92=VECTOR('',#378,1000.);
#93=VECTOR('',#379,1000.);
#94=VECTOR('',#380,1000.);
#95=VECTOR('',#383,1000.);
#96=VECTOR('',#384,1000.);
#97=VECTOR('',#385,1000.);
#98=VECTOR('',#386,1000.);
#99=VECTOR('',#389,1000.);
#100=VECTOR('',#394,1000.);
#101=VECTOR('',#409,1000.);
#102=VECTOR('',#420,1000.);
#103=VECTOR('',#425,1000.);
#104=VECTOR('',#426,1000.);
#105=VECTOR('',#429,1000.);
#106=VECTOR('',#430,1000.);
#107=CIRCLE('',#322,7.);
#108=CIRCLE('',#323,7.);
#109=CIRCLE('',#329,2.);
#110=CIRCLE('',#330,2.);
#111=CIRCLE('',#331,2.);
#112=CIRCLE('',#332,2.);
#113=CIRCLE('',#333,2.);
#114=CIRCLE('',#334,2.);
#115=CIRCLE('',#335,2.);
#116=CIRCLE('',#337,2.);
#117=CIRCLE('',#338,2.);
#118=CIRCLE('',#339,2.);
#119=CIRCLE('',#340,2.);
#120=CIRCLE('',#341,2.);
#121=CIRCLE('',#342,2.);
#122=CIRCLE('',#343,2.);
#123=VERTEX_POINT('',#447);
#124=VERTEX_POINT('',#448);
#125=VERTEX_POINT('',#450);
#126=VERTEX_POINT('',#452);
#127=VERTEX_POINT('',#456);
#128=VERTEX_POINT('',#457);
#129=VERTEX_POINT('',#459);
#130=VERTEX_POINT('',#461);
#131=VERTEX_POINT('',#465);
#132=VERTEX_POINT('',#466);
#133=VERTEX_POINT('',#468);
#134=VERTEX_POINT('',#470);
#135=VERTEX_POINT('',#474);
#136=VERTEX_POINT('',#475);
#137=VERTEX_POINT('',#477);
#138=VERTEX_POINT('',#479);
#139=VERTEX_POINT('',#483);
#140=VERTEX_POINT('',#484);
#141=VERTEX_POINT('',#486);
#142=VERTEX_POINT('',#488);
#143=VERTEX_POINT('',#492);
#144=VERTEX_POINT('',#493);
#145=VERTEX_POINT('',#496);
#146=VERTEX_POINT('',#498);
#147=VERTEX_POINT('',#506);
#148=VERTEX_POINT('',#508);
#149=VERTEX_POINT('',#514);
#150=VERTEX_POINT('',#516);
#151=EDGE_CURVE('',#123,#124,#107,.T.);
#152=EDGE_CURVE('',#123,#125,#55,.T.);
#153=EDGE_CURVE('',#125,#126,#108,.T.);
#154=EDGE_CURVE('',#126,#124,#56,.T.);
#155=EDGE_CURVE('',#127,#128,#57,.T.);
#156=EDGE_CURVE('',#127,#129,#58,.T.);
#157=EDGE_CURVE('',#129,#130,#59,.T.);
#158=EDGE_CURVE('',#130,#128,#60,.T.);
#159=EDGE_CURVE('',#131,#132,#61,.T.);
#160=EDGE_CURVE('',#132,#133,#62,.T.);
#161=EDGE_CURVE('',#134,#133,#63,.T.);
#162=EDGE_CURVE('',#134,#131,#64,.T.);
#163=EDGE_CURVE('',#135,#136,#65,.T.);
#164=EDGE_CURVE('',#136,#137,#66,.T.);
#165=EDGE_CURVE('',#138,#137,#67,.T.);
#166=EDGE_CURVE('',#138,#135,#68,.T.);
#167=EDGE_CURVE('',#139,#140,#69,.T.);
#168=EDGE_CURVE('',#140,#141,#70,.T.);
#169=EDGE_CURVE('',#142,#141,#71,.T.);
#170=EDGE_CURVE('',#142,#139,#72,.T.);
#171=EDGE_CURVE('',#143,#144,#73,.T.);
#172=EDGE_CURVE('',#143,#126,#109,.T.);
#173=EDGE_CURVE('',#125,#145,#110,.T.);
#174=EDGE_CURVE('',#146,#145,#74,.T.);
#175=EDGE_CURVE('',#146,#127,#111,.T.);
#176=EDGE_CURVE('',#128,#134,#112,.T.);
#177=EDGE_CURVE('',#133,#138,#113,.T.);
#178=EDGE_CURVE('',#137,#142,#114,.T.);
#179=EDGE_CURVE('',#141,#144,#115,.T.);
#180=EDGE_CURVE('',#124,#147,#116,.T.);
#181=EDGE_CURVE('',#147,#148,#75,.T.);
#182=EDGE_CURVE('',#148,#140,#117,.T.);
#183=EDGE_CURVE('',#139,#136,#118,.T.);
#184=EDGE_CURVE('',#135,#132,#119,.T.);
#185=EDGE_CURVE('',#131,#130,#120,.T.);
#186=EDGE_CURVE('',#129,#149,#121,.T.);
#187=EDGE_CURVE('',#149,#150,#76,.T.);
#188=EDGE_CURVE('',#150,#123,#122,.T.);
#189=EDGE_CURVE('',#147,#143,#77,.T.);
#190=EDGE_CURVE('',#144,#148,#78,.T.);
#191=EDGE_CURVE('',#145,#150,#79,.T.);
#192=EDGE_CURVE('',#149,#146,#80,.T.);
#193=ORIENTED_EDGE('',*,*,#151,.F.);
#194=ORIENTED_EDGE('',*,*,#152,.T.);
#195=ORIENTED_EDGE('',*,*,#153,.T.);
#196=ORIENTED_EDGE('',*,*,#154,.T.);
#197=ORIENTED_EDGE('',*,*,#155,.F.);
#198=ORIENTED_EDGE('',*,*,#156,.T.);
#199=ORIENTED_EDGE('',*,*,#157,.T.);
#200=ORIENTED_EDGE('',*,*,#158,.T.);
#201=ORIENTED_EDGE('',*,*,#159,.T.);
#202=ORIENTED_EDGE('',*,*,#160,.T.);
#203=ORIENTED_EDGE('',*,*,#161,.F.);
#204=ORIENTED_EDGE('',*,*,#162,.T.);
#205=ORIENTED_EDGE('',*,*,#163,.T.);
#206=ORIENTED_EDGE('',*,*,#164,.T.);
#207=ORIENTED_EDGE('',*,*,#165,.F.);
#208=ORIENTED_EDGE('',*,*,#166,.T.);
#209=ORIENTED_EDGE('',*,*,#167,.T.);
#210=ORIENTED_EDGE('',*,*,#168,.T.);
#211=ORIENTED_EDGE('',*,*,#169,.F.);
#212=ORIENTED_EDGE('',*,*,#170,.T.);
#213=ORIENTED_EDGE('',*,*,#171,.F.);
#214=ORIENTED_EDGE('',*,*,#172,.T.);
#215=ORIENTED_EDGE('',*,*,#153,.F.);
#216=ORIENTED_EDGE('',*,*,#173,.T.);
#217=ORIENTED_EDGE('',*,*,#174,.F.);
#218=ORIENTED_EDGE('',*,*,#175,.T.);
#219=ORIENTED_EDGE('',*,*,#155,.T.);
#220=ORIENTED_EDGE('',*,*,#176,.T.);
#221=ORIENTED_EDGE('',*,*,#161,.T.);
#222=ORIENTED_EDGE('',*,*,#177,.T.);
#223=ORIENTED_EDGE('',*,*,#165,.T.);
#224=ORIENTED_EDGE('',*,*,#178,.T.);
#225=ORIENTED_EDGE('',*,*,#169,.T.);
#226=ORIENTED_EDGE('',*,*,#179,.T.);
#227=ORIENTED_EDGE('',*,*,#151,.T.);
#228=ORIENTED_EDGE('',*,*,#180,.T.);
#229=ORIENTED_EDGE('',*,*,#181,.T.);
#230=ORIENTED_EDGE('',*,*,#182,.T.);
#231=ORIENTED_EDGE('',*,*,#167,.F.);
#232=ORIENTED_EDGE('',*,*,#183,.T.);
#233=ORIENTED_EDGE('',*,*,#163,.F.);
#234=ORIENTED_EDGE('',*,*,#184,.T.);
#235=ORIENTED_EDGE('',*,*,#159,.F.);
#236=ORIENTED_EDGE('',*,*,#185,.T.);
#237=ORIENTED_EDGE('',*,*,#157,.F.);
#238=ORIENTED_EDGE('',*,*,#186,.T.);
#239=ORIENTED_EDGE('',*,*,#187,.T.);
#240=ORIENTED_EDGE('',*,*,#188,.T.);
#241=ORIENTED_EDGE('',*,*,#181,.F.);
#242=ORIENTED_EDGE('',*,*,#189,.T.);
#243=ORIENTED_EDGE('',*,*,#171,.T.);
#244=ORIENTED_EDGE('',*,*,#190,.T.);
#245=ORIENTED_EDGE('',*,*,#174,.T.);
#246=ORIENTED_EDGE('',*,*,#191,.T.);
#247=ORIENTED_EDGE('',*,*,#187,.F.);
#248=ORIENTED_EDGE('',*,*,#192,.T.);
#249=ORIENTED_EDGE('',*,*,#178,.F.);
#250=ORIENTED_EDGE('',*,*,#164,.F.);
#251=ORIENTED_EDGE('',*,*,#183,.F.);
#252=ORIENTED_EDGE('',*,*,#170,.F.);
#253=ORIENTED_EDGE('',*,*,#177,.F.);
#254=ORIENTED_EDGE('',*,*,#160,.F.);
#255=ORIENTED_EDGE('',*,*,#184,.F.);
#256=ORIENTED_EDGE('',*,*,#166,.F.);
#257=ORIENTED_EDGE('',*,*,#176,.F.);
#258=ORIENTED_EDGE('',*,*,#158,.F.);
#259=ORIENTED_EDGE('',*,*,#185,.F.);
#260=ORIENTED_EDGE('',*,*,#162,.F.);
#261=ORIENTED_EDGE('',*,*,#182,.F.);
#262=ORIENTED_EDGE('',*,*,#190,.F.);
#263=ORIENTED_EDGE('',*,*,#179,.F.);
#264=ORIENTED_EDGE('',*,*,#168,.F.);
#265=ORIENTED_EDGE('',*,*,#175,.F.);
#266=ORIENTED_EDGE('',*,*,#192,.F.);
#267=ORIENTED_EDGE('',*,*,#186,.F.);
#268=ORIENTED_EDGE('',*,*,#156,.F.);
#269=ORIENTED_EDGE('',*,*,#172,.F.);
#270=ORIENTED_EDGE('',*,*,#189,.F.);
#271=ORIENTED_EDGE('',*,*,#180,.F.);
#272=ORIENTED_EDGE('',*,*,#154,.F.);
#273=ORIENTED_EDGE('',*,*,#188,.F.);
#274=ORIENTED_EDGE('',*,*,#191,.F.);
#275=ORIENTED_EDGE('',*,*,#173,.F.);
#276=ORIENTED_EDGE('',*,*,#152,.F.);
#277=CYLINDRICAL_SURFACE('',#321,7.);
#278=CYLINDRICAL_SURFACE('',#346,2.);
#279=CYLINDRICAL_SURFACE('',#347,2.);
#280=CYLINDRICAL_SURFACE('',#348,2.);
#281=CYLINDRICAL_SURFACE('',#349,2.);
#282=CYLINDRICAL_SURFACE('',#350,2.);
#283=CYLINDRICAL_SURFACE('',#351,2.);
#284=CYLINDRICAL_SURFACE('',#352,2.);
#285=ADVANCED_FACE('',(#23),#277,.F.);
#286=ADVANCED_FACE('',(#24),#15,.F.);
#287=ADVANCED_FACE('',(#25),#16,.F.);
#288=ADVANCED_FACE('',(#26),#17,.F.);
#289=ADVANCED_FACE('',(#27),#18,.F.);
#290=ADVANCED_FACE('',(#28),#19,.F.);
#291=ADVANCED_FACE('',(#29),#20,.T.);
#292=ADVANCED_FACE('',(#30),#21,.F.);
#293=ADVANCED_FACE('',(#31),#22,.F.);
#294=ADVANCED_FACE('',(#32),#278,.T.);
#295=ADVANCED_FACE('',(#33),#279,.T.);
#296=ADVANCED_FACE('',(#34),#280,.T.);
#297=ADVANCED_FACE('',(#35),#281,.T.);
#298=ADVANCED_FACE('',(#36),#282,.T.);
#299=ADVANCED_FACE('',(#37),#283,.T.);
#300=ADVANCED_FACE('',(#38),#284,.T.);
#301=CLOSED_SHELL('',(#285,#286,#287,#288,#289,#290,#291,#292,#293,#294,
#295,#296,#297,#298,#299,#300));
#302=DERIVED_UNIT_ELEMENT(#304,1.);
#303=DERIVED_UNIT_ELEMENT(#537,-3.);
#304=(
MASS_UNIT()
NAMED_UNIT(*)
SI_UNIT($,.GRAM.)
);
#305=DERIVED_UNIT((#302,#303));
#306=MEASURE_REPRESENTATION_ITEM('density measure',
POSITIVE_RATIO_MEASURE(7.85),#305);
#307=PROPERTY_DEFINITION_REPRESENTATION(#312,#309);
#308=PROPERTY_DEFINITION_REPRESENTATION(#313,#310);
#309=REPRESENTATION('material name',(#311),#534);
#310=REPRESENTATION('density',(#306),#534);
#311=DESCRIPTIVE_REPRESENTATION_ITEM('Acciaio','Acciaio');
#312=PROPERTY_DEFINITION('material property','material name',#544);
#313=PROPERTY_DEFINITION('material property','density of part',#544);
#314=DATE_TIME_ROLE('creation_date');
#315=APPLIED_DATE_AND_TIME_ASSIGNMENT(#316,#314,(#544));
#316=DATE_AND_TIME(#317,#318);
#317=CALENDAR_DATE(2014,5,11);
#318=LOCAL_TIME(0,0,0.,#319);
#319=COORDINATED_UNIVERSAL_TIME_OFFSET(0,0,.BEHIND.);
#320=AXIS2_PLACEMENT_3D('placement',#445,#353,#354);
#321=AXIS2_PLACEMENT_3D('',#446,#355,#356);
#322=AXIS2_PLACEMENT_3D('',#449,#357,#358);
#323=AXIS2_PLACEMENT_3D('',#453,#360,#361);
#324=AXIS2_PLACEMENT_3D('',#455,#363,#364);
#325=AXIS2_PLACEMENT_3D('',#464,#369,#370);
#326=AXIS2_PLACEMENT_3D('',#473,#375,#376);
#327=AXIS2_PLACEMENT_3D('',#482,#381,#382);
#328=AXIS2_PLACEMENT_3D('',#491,#387,#388);
#329=AXIS2_PLACEMENT_3D('',#495,#390,#391);
#330=AXIS2_PLACEMENT_3D('',#497,#392,#393);
#331=AXIS2_PLACEMENT_3D('',#500,#395,#396);
#332=AXIS2_PLACEMENT_3D('',#501,#397,#398);
#333=AXIS2_PLACEMENT_3D('',#502,#399,#400);
#334=AXIS2_PLACEMENT_3D('',#503,#401,#402);
#335=AXIS2_PLACEMENT_3D('',#504,#403,#404);
#336=AXIS2_PLACEMENT_3D('',#505,#405,#406);
#337=AXIS2_PLACEMENT_3D('',#507,#407,#408);
#338=AXIS2_PLACEMENT_3D('',#510,#410,#411);
#339=AXIS2_PLACEMENT_3D('',#511,#412,#413);
#340=AXIS2_PLACEMENT_3D('',#512,#414,#415);
#341=AXIS2_PLACEMENT_3D('',#513,#416,#417);
#342=AXIS2_PLACEMENT_3D('',#515,#418,#419);
#343=AXIS2_PLACEMENT_3D('',#518,#421,#422);
#344=AXIS2_PLACEMENT_3D('',#519,#423,#424);
#345=AXIS2_PLACEMENT_3D('',#522,#427,#428);
#346=AXIS2_PLACEMENT_3D('',#525,#431,#432);
#347=AXIS2_PLACEMENT_3D('',#526,#433,#434);
#348=AXIS2_PLACEMENT_3D('',#527,#435,#436);
#349=AXIS2_PLACEMENT_3D('',#528,#437,#438);
#350=AXIS2_PLACEMENT_3D('',#529,#439,#440);
#351=AXIS2_PLACEMENT_3D('',#530,#441,#442);
#352=AXIS2_PLACEMENT_3D('',#531,#443,#444);
#353=DIRECTION('axis',(0.,0.,1.));
#354=DIRECTION('refdir',(1.,0.,0.));
#355=DIRECTION('center_axis',(0.,0.,1.));
#356=DIRECTION('ref_axis',(1.,0.,0.));
#357=DIRECTION('center_axis',(0.,0.,1.));
#358=DIRECTION('ref_axis',(1.,0.,0.));
#359=DIRECTION('',(0.,0.,1.));
#360=DIRECTION('center_axis',(0.,0.,1.));
#361=DIRECTION('ref_axis',(1.,0.,0.));
#362=DIRECTION('',(0.,0.,-1.));
#363=DIRECTION('center_axis',(1.,8.67361737988404E-17,0.));
#364=DIRECTION('ref_axis',(-8.67361737988404E-17,1.,0.));
#365=DIRECTION('',(8.67361737988404E-17,-1.,0.));
#366=DIRECTION('',(0.,0.,-1.));
#367=DIRECTION('',(8.67361737988404E-17,-1.,0.));
#368=DIRECTION('',(0.,0.,1.));
#369=DIRECTION('center_axis',(-8.67361737988404E-17,1.,0.));
#370=DIRECTION('ref_axis',(-1.,-8.67361737988404E-17,0.));
#371=DIRECTION('',(1.,8.67361737988404E-17,0.));
#372=DIRECTION('',(0.,0.,1.));
#373=DIRECTION('',(1.,8.67361737988404E-17,0.));
#374=DIRECTION('',(0.,0.,-1.));
#375=DIRECTION('center_axis',(-1.,0.,0.));
#376=DIRECTION('ref_axis',(0.,0.,1.));
#377=DIRECTION('',(0.,1.,0.));
#378=DIRECTION('',(0.,0.,1.));
#379=DIRECTION('',(0.,1.,0.));
#380=DIRECTION('',(0.,0.,-1.));
#381=DIRECTION('center_axis',(0.,-1.,0.));
#382=DIRECTION('ref_axis',(0.,0.,-1.));
#383=DIRECTION('',(-1.,0.,0.));
#384=DIRECTION('',(0.,0.,1.));
#385=DIRECTION('',(-1.,0.,0.));
#386=DIRECTION('',(0.,0.,-1.));
#387=DIRECTION('center_axis',(0.,0.,-1.));
#388=DIRECTION('ref_axis',(-1.,0.,0.));
#389=DIRECTION('',(-0.707106781186547,0.707106781186548,0.));
#390=DIRECTION('center_axis',(0.,0.,1.));
#391=DIRECTION('ref_axis',(-1.,0.,0.));
#392=DIRECTION('center_axis',(0.,0.,1.));
#393=DIRECTION('ref_axis',(-1.,-5.20417042793042E-15,0.));
#394=DIRECTION('',(0.707106781186547,-0.707106781186548,0.));
#395=DIRECTION('center_axis',(0.,0.,1.));
#396=DIRECTION('ref_axis',(-1.,8.67361737988403E-16,0.));
#397=DIRECTION('center_axis',(0.,0.,1.));
#398=DIRECTION('ref_axis',(-1.,0.,0.));
#399=DIRECTION('center_axis',(0.,0.,1.));
#400=DIRECTION('ref_axis',(-1.,0.,0.));
#401=DIRECTION('center_axis',(0.,0.,1.));
#402=DIRECTION('ref_axis',(-1.,0.,0.));
#403=DIRECTION('center_axis',(0.,0.,1.));
#404=DIRECTION('ref_axis',(-1.,1.73472347597681E-15,0.));
#405=DIRECTION('center_axis',(0.,0.,-1.));
#406=DIRECTION('ref_axis',(-1.,0.,0.));
#407=DIRECTION('center_axis',(0.,0.,-1.));
#408=DIRECTION('ref_axis',(-1.,0.,0.));
#409=DIRECTION('',(-0.707106781186547,0.707106781186548,0.));
#410=DIRECTION('center_axis',(0.,0.,-1.));
#411=DIRECTION('ref_axis',(-1.,0.,0.));
#412=DIRECTION('center_axis',(0.,0.,-1.));
#413=DIRECTION('ref_axis',(-1.,0.,0.));
#414=DIRECTION('center_axis',(0.,0.,-1.));
#415=DIRECTION('ref_axis',(-1.,0.,0.));
#416=DIRECTION('center_axis',(0.,0.,-1.));
#417=DIRECTION('ref_axis',(-1.,0.,0.));
#418=DIRECTION('center_axis',(0.,0.,-1.));
#419=DIRECTION('ref_axis',(-1.,0.,0.));
#420=DIRECTION('',(0.707106781186547,-0.707106781186548,0.));
#421=DIRECTION('center_axis',(0.,0.,-1.));
#422=DIRECTION('ref_axis',(-1.,0.,0.));
#423=DIRECTION('center_axis',(0.707106781186548,0.707106781186547,0.));
#424=DIRECTION('ref_axis',(-0.707106781186547,0.707106781186548,0.));
#425=DIRECTION('',(0.,0.,1.));
#426=DIRECTION('',(0.,0.,-1.));
#427=DIRECTION('center_axis',(-0.707106781186548,-0.707106781186547,0.));
#428=DIRECTION('ref_axis',(0.707106781186547,-0.707106781186548,0.));
#429=DIRECTION('',(0.,0.,-1.));
#430=DIRECTION('',(0.,0.,1.));
#431=DIRECTION('center_axis',(0.,0.,-1.));
#432=DIRECTION('ref_axis',(-1.,0.,0.));
#433=DIRECTION('center_axis',(0.,0.,-1.));
#434=DIRECTION('ref_axis',(-1.,0.,0.));
#435=DIRECTION('center_axis',(0.,0.,-1.));
#436=DIRECTION('ref_axis',(-1.,0.,0.));
#437=DIRECTION('center_axis',(0.,0.,1.));
#438=DIRECTION('ref_axis',(-0.923879532511287,0.38268343236509,0.));
#439=DIRECTION('center_axis',(0.,0.,-1.));
#440=DIRECTION('ref_axis',(-1.,0.,0.));
#441=DIRECTION('center_axis',(0.,0.,1.));
#442=DIRECTION('ref_axis',(1.,0.,0.));
#443=DIRECTION('center_axis',(0.,0.,1.));
#444=DIRECTION('ref_axis',(1.,0.,0.));
#445=CARTESIAN_POINT('',(0.,0.,0.));
#446=CARTESIAN_POINT('Origin',(0.,0.,0.));
#447=CARTESIAN_POINT('',(-6.30160043832732,-3.04792255736147,0.));
#448=CARTESIAN_POINT('',(3.04792255736147,6.30160043832732,0.));
#449=CARTESIAN_POINT('Origin',(0.,0.,0.));
#450=CARTESIAN_POINT('',(-6.30160043832732,-3.04792255736147,1.));
#451=CARTESIAN_POINT('',(-6.30160043832732,-3.04792255736147,0.));
#452=CARTESIAN_POINT('',(3.04792255736147,6.30160043832732,1.));
#453=CARTESIAN_POINT('Origin',(0.,0.,1.));
#454=CARTESIAN_POINT('',(3.04792255736147,6.30160043832732,0.));
#455=CARTESIAN_POINT('Origin',(-20.,20.,1.));
#456=CARTESIAN_POINT('',(-20.,5.97918471982869,1.));
#457=CARTESIAN_POINT('',(-20.,-18.,1.));
#458=CARTESIAN_POINT('',(-20.,20.,1.));
#459=CARTESIAN_POINT('',(-20.,5.97918471982869,0.));
#460=CARTESIAN_POINT('',(-20.,5.97918471982869,1.));
#461=CARTESIAN_POINT('',(-20.,-18.,0.));
#462=CARTESIAN_POINT('',(-20.,20.,0.));
#463=CARTESIAN_POINT('',(-20.,-18.,1.));
#464=CARTESIAN_POINT('Origin',(20.,-20.,1.));
#465=CARTESIAN_POINT('',(-18.,-20.,0.));
#466=CARTESIAN_POINT('',(18.,-20.,0.));
#467=CARTESIAN_POINT('',(20.,-20.,0.));
#468=CARTESIAN_POINT('',(18.,-20.,1.));
#469=CARTESIAN_POINT('',(18.,-20.,1.));
#470=CARTESIAN_POINT('',(-18.,-20.,1.));
#471=CARTESIAN_POINT('',(20.,-20.,1.));
#472=CARTESIAN_POINT('',(-18.,-20.,1.));
#473=CARTESIAN_POINT('Origin',(20.,20.,1.));
#474=CARTESIAN_POINT('',(20.,-18.,0.));
#475=CARTESIAN_POINT('',(20.,18.,0.));
#476=CARTESIAN_POINT('',(20.,20.,0.));
#477=CARTESIAN_POINT('',(20.,18.,1.));
#478=CARTESIAN_POINT('',(20.,18.,1.));
#479=CARTESIAN_POINT('',(20.,-18.,1.));
#480=CARTESIAN_POINT('',(20.,20.,1.));
#481=CARTESIAN_POINT('',(20.,-18.,1.));
#482=CARTESIAN_POINT('Origin',(20.,20.,1.));
#483=CARTESIAN_POINT('',(18.,20.,0.));
#484=CARTESIAN_POINT('',(-5.97918471982869,20.,0.));
#485=CARTESIAN_POINT('',(20.,20.,0.));
#486=CARTESIAN_POINT('',(-5.97918471982869,20.,1.));
#487=CARTESIAN_POINT('',(-5.97918471982869,20.,1.));
#488=CARTESIAN_POINT('',(18.,20.,1.));
#489=CARTESIAN_POINT('',(20.,20.,1.));
#490=CARTESIAN_POINT('',(18.,20.,1.));
#491=CARTESIAN_POINT('Origin',(-20.,-20.,1.));
#492=CARTESIAN_POINT('',(2.50454401137737,6.68784414404775,1.));
#493=CARTESIAN_POINT('',(-7.39339828220179,16.5857864376269,1.));
#494=CARTESIAN_POINT('',(4.59619407771256,4.59619407771256,1.));
#495=CARTESIAN_POINT('Origin',(3.91875757375047,8.10205770642084,1.));
#496=CARTESIAN_POINT('',(-6.68784414404775,-2.50454401137737,1.));
#497=CARTESIAN_POINT('Origin',(-8.10205770642085,-3.91875757375046,1.));
#498=CARTESIAN_POINT('',(-16.5857864376269,7.39339828220178,1.));
#499=CARTESIAN_POINT('',(-4.59619407771256,-4.59619407771256,1.));
#500=CARTESIAN_POINT('Origin',(-18.,5.97918471982869,1.));
#501=CARTESIAN_POINT('Origin',(-18.,-18.,1.));
#502=CARTESIAN_POINT('Origin',(18.,-18.,1.));
#503=CARTESIAN_POINT('Origin',(18.,18.,1.));
#504=CARTESIAN_POINT('Origin',(-5.97918471982869,18.,1.));
#505=CARTESIAN_POINT('Origin',(-20.,-20.,0.));
#506=CARTESIAN_POINT('',(2.50454401137737,6.68784414404775,0.));
#507=CARTESIAN_POINT('Origin',(3.91875757375047,8.10205770642084,0.));
#508=CARTESIAN_POINT('',(-7.39339828220179,16.5857864376269,0.));
#509=CARTESIAN_POINT('',(4.59619407771256,4.59619407771256,0.));
#510=CARTESIAN_POINT('Origin',(-5.97918471982869,18.,0.));
#511=CARTESIAN_POINT('Origin',(18.,18.,0.));
#512=CARTESIAN_POINT('Origin',(18.,-18.,0.));
#513=CARTESIAN_POINT('Origin',(-18.,-18.,0.));
#514=CARTESIAN_POINT('',(-16.5857864376269,7.39339828220178,0.));
#515=CARTESIAN_POINT('Origin',(-18.,5.97918471982869,0.));
#516=CARTESIAN_POINT('',(-6.68784414404775,-2.50454401137737,0.));
#517=CARTESIAN_POINT('',(-4.59619407771256,-4.59619407771256,0.));
#518=CARTESIAN_POINT('Origin',(-8.10205770642085,-3.91875757375046,0.));
#519=CARTESIAN_POINT('Origin',(4.59619407771256,4.59619407771256,0.));
#520=CARTESIAN_POINT('',(2.50454401137737,6.68784414404775,0.));
#521=CARTESIAN_POINT('',(-7.39339828220178,16.5857864376269,0.));
#522=CARTESIAN_POINT('Origin',(-4.59619407771256,-4.59619407771256,0.));
#523=CARTESIAN_POINT('',(-6.68784414404775,-2.50454401137737,0.));
#524=CARTESIAN_POINT('',(-16.5857864376269,7.39339828220178,0.));
#525=CARTESIAN_POINT('Origin',(18.,18.,1.));
#526=CARTESIAN_POINT('Origin',(18.,-18.,1.));
#527=CARTESIAN_POINT('Origin',(-18.,-18.,1.));
#528=CARTESIAN_POINT('Origin',(-5.97918471982869,18.,1.));
#529=CARTESIAN_POINT('Origin',(-18.,5.97918471982869,1.));
#530=CARTESIAN_POINT('Origin',(3.91875757375047,8.10205770642084,0.));
#531=CARTESIAN_POINT('Origin',(-8.10205770642085,-3.91875757375046,0.));
#532=UNCERTAINTY_MEASURE_WITH_UNIT(LENGTH_MEASURE(0.01),#536,
'DISTANCE_ACCURACY_VALUE',
'Maximum model space distance between geometric entities at asserted c
onnectivities');
#533=UNCERTAINTY_MEASURE_WITH_UNIT(LENGTH_MEASURE(0.01),#536,
'DISTANCE_ACCURACY_VALUE',
'Maximum model space distance between geometric entities at asserted c
onnectivities');
#534=(
GEOMETRIC_REPRESENTATION_CONTEXT(3)
GLOBAL_UNCERTAINTY_ASSIGNED_CONTEXT((#532))
GLOBAL_UNIT_ASSIGNED_CONTEXT((#536,#538,#539))
REPRESENTATION_CONTEXT('','3D')
);
#535=(
GEOMETRIC_REPRESENTATION_CONTEXT(3)
GLOBAL_UNCERTAINTY_ASSIGNED_CONTEXT((#533))
GLOBAL_UNIT_ASSIGNED_CONTEXT((#536,#538,#539))
REPRESENTATION_CONTEXT('','3D')
);
#536=(
LENGTH_UNIT()
NAMED_UNIT(*)
SI_UNIT(.MILLI.,.METRE.)
);
#537=(
LENGTH_UNIT()
NAMED_UNIT(*)
SI_UNIT(.CENTI.,.METRE.)
);
#538=(
NAMED_UNIT(*)
PLANE_ANGLE_UNIT()
SI_UNIT($,.RADIAN.)
);
#539=(
NAMED_UNIT(*)
SI_UNIT($,.STERADIAN.)
SOLID_ANGLE_UNIT()
);
#540=SHAPE_DEFINITION_REPRESENTATION(#541,#542);
#541=PRODUCT_DEFINITION_SHAPE('',$,#544);
#542=SHAPE_REPRESENTATION('',(#320),#534);
#543=PRODUCT_DEFINITION_CONTEXT('part definition',#548,'design');
#544=PRODUCT_DEFINITION('BP00','BP00',#545,#543);
#545=PRODUCT_DEFINITION_FORMATION('A00',$,#550);
#546=PRODUCT_RELATED_PRODUCT_CATEGORY('BP00','BP00',(#550));
#547=APPLICATION_PROTOCOL_DEFINITION('international standard',
'automotive_design',2009,#548);
#548=APPLICATION_CONTEXT(
'Core Data for Automotive Mechanical Design Process');
#549=PRODUCT_CONTEXT('part definition',#548,'mechanical');
#550=PRODUCT('BP00','BP00','Piastrina di fissaggio staffa BP',(#549));
#551=PRESENTATION_STYLE_ASSIGNMENT((#552));
#552=SURFACE_STYLE_USAGE(.BOTH.,#555);
#553=SURFACE_STYLE_RENDERING_WITH_PROPERTIES($,#559,(#554));
#554=SURFACE_STYLE_TRANSPARENT(0.);
#555=SURFACE_SIDE_STYLE('',(#556,#553));
#556=SURFACE_STYLE_FILL_AREA(#557);
#557=FILL_AREA_STYLE('',(#558));
#558=FILL_AREA_STYLE_COLOUR('',#559);
#559=COLOUR_RGB('',0.0196078431372549,0.0196078431372549,0.0196078431372549);
ENDSEC;
END-ISO-10303-21;
