ISO-10303-21;
HEADER;
/* Generated by software containing ST-Developer
 * from STEP Tools, Inc. (www.steptools.com) 
 */

FILE_DESCRIPTION(
/* description */ ('Blocchetto di fissaggio rapido 29x24.5x11'),
/* implementation_level */ '2;1');

FILE_NAME(
/* name */ 
'C:\\Users\\Stefan.Nesic\\Desktop\\01010 STEP da zippare\\BFR45.stp',
/* time_stamp */ '2022-06-17T12:14:27+02:00',
/* author */ ('Stefan'),
/* organization */ (''),
/* preprocessor_version */ 'ST-DEVELOPER v18.1',
/* originating_system */ 'Autodesk Inventor 2021',
/* authorisation */ '');

FILE_SCHEMA (('AUTOMOTIVE_DESIGN { 1 0 10303 214 3 1 1 }'));
ENDSEC;

DATA;
#10=MECHANICAL_DESIGN_GEOMETRIC_PRESENTATION_REPRESENTATION('',(#13),#576);
#11=SHAPE_REPRESENTATION_RELATIONSHIP('SRR','None',#583,#12);
#12=ADVANCED_BREP_SHAPE_REPRESENTATION('',(#14),#575);
#13=STYLED_ITEM('',(#592),#14);
#14=MANIFOLD_SOLID_BREP('Solido1',#338);
#15=FACE_BOUND('',#59,.T.);
#16=FACE_BOUND('',#62,.T.);
#17=FACE_BOUND('',#68,.T.);
#18=PLANE('',#361);
#19=PLANE('',#362);
#20=PLANE('',#363);
#21=PLANE('',#364);
#22=PLANE('',#365);
#23=PLANE('',#366);
#24=PLANE('',#367);
#25=PLANE('',#368);
#26=PLANE('',#369);
#27=PLANE('',#373);
#28=PLANE('',#374);
#29=PLANE('',#382);
#30=PLANE('',#383);
#31=FACE_OUTER_BOUND('',#49,.T.);
#32=FACE_OUTER_BOUND('',#50,.T.);
#33=FACE_OUTER_BOUND('',#51,.T.);
#34=FACE_OUTER_BOUND('',#52,.T.);
#35=FACE_OUTER_BOUND('',#53,.T.);
#36=FACE_OUTER_BOUND('',#54,.T.);
#37=FACE_OUTER_BOUND('',#55,.T.);
#38=FACE_OUTER_BOUND('',#56,.T.);
#39=FACE_OUTER_BOUND('',#57,.T.);
#40=FACE_OUTER_BOUND('',#58,.T.);
#41=FACE_OUTER_BOUND('',#60,.T.);
#42=FACE_OUTER_BOUND('',#61,.T.);
#43=FACE_OUTER_BOUND('',#63,.T.);
#44=FACE_OUTER_BOUND('',#64,.T.);
#45=FACE_OUTER_BOUND('',#65,.T.);
#46=FACE_OUTER_BOUND('',#66,.T.);
#47=FACE_OUTER_BOUND('',#67,.T.);
#48=FACE_OUTER_BOUND('',#69,.T.);
#49=EDGE_LOOP('',(#225,#226,#227,#228));
#50=EDGE_LOOP('',(#229,#230,#231,#232,#233,#234,#235,#236,#237,#238,#239));
#51=EDGE_LOOP('',(#240,#241,#242,#243));
#52=EDGE_LOOP('',(#244,#245,#246,#247));
#53=EDGE_LOOP('',(#248,#249,#250,#251));
#54=EDGE_LOOP('',(#252,#253,#254,#255));
#55=EDGE_LOOP('',(#256,#257,#258,#259));
#56=EDGE_LOOP('',(#260,#261,#262,#263));
#57=EDGE_LOOP('',(#264,#265,#266,#267));
#58=EDGE_LOOP('',(#268,#269,#270,#271,#272,#273));
#59=EDGE_LOOP('',(#274));
#60=EDGE_LOOP('',(#275,#276,#277,#278,#279,#280,#281,#282,#283,#284,#285));
#61=EDGE_LOOP('',(#286));
#62=EDGE_LOOP('',(#287));
#63=EDGE_LOOP('',(#288,#289,#290,#291));
#64=EDGE_LOOP('',(#292,#293,#294,#295));
#65=EDGE_LOOP('',(#296,#297,#298,#299));
#66=EDGE_LOOP('',(#300,#301,#302,#303));
#67=EDGE_LOOP('',(#304,#305,#306,#307,#308,#309));
#68=EDGE_LOOP('',(#310));
#69=EDGE_LOOP('',(#311,#312,#313,#314));
#70=LINE('',#485,#105);
#71=LINE('',#488,#106);
#72=LINE('',#491,#107);
#73=LINE('',#493,#108);
#74=LINE('',#495,#109);
#75=LINE('',#497,#110);
#76=LINE('',#499,#111);
#77=LINE('',#501,#112);
#78=LINE('',#503,#113);
#79=LINE('',#505,#114);
#80=LINE('',#507,#115);
#81=LINE('',#508,#116);
#82=LINE('',#511,#117);
#83=LINE('',#512,#118);
#84=LINE('',#516,#119);
#85=LINE('',#517,#120);
#86=LINE('',#518,#121);
#87=LINE('',#522,#122);
#88=LINE('',#523,#123);
#89=LINE('',#524,#124);
#90=LINE('',#526,#125);
#91=LINE('',#529,#126);
#92=LINE('',#530,#127);
#93=LINE('',#533,#128);
#94=LINE('',#534,#129);
#95=LINE('',#536,#130);
#96=LINE('',#539,#131);
#97=LINE('',#543,#132);
#98=LINE('',#549,#133);
#99=LINE('',#550,#134);
#100=LINE('',#557,#135);
#101=LINE('',#560,#136);
#102=LINE('',#565,#137);
#103=LINE('',#568,#138);
#104=LINE('',#569,#139);
#105=VECTOR('',#392,10.);
#106=VECTOR('',#395,10.);
#107=VECTOR('',#398,10.);
#108=VECTOR('',#399,10.);
#109=VECTOR('',#400,10.);
#110=VECTOR('',#401,10.);
#111=VECTOR('',#402,10.);
#112=VECTOR('',#403,10.);
#113=VECTOR('',#404,10.);
#114=VECTOR('',#405,10.);
#115=VECTOR('',#406,10.);
#116=VECTOR('',#407,10.);
#117=VECTOR('',#410,10.);
#118=VECTOR('',#411,10.);
#119=VECTOR('',#414,10.);
#120=VECTOR('',#415,10.);
#121=VECTOR('',#416,10.);
#122=VECTOR('',#419,10.);
#123=VECTOR('',#420,10.);
#124=VECTOR('',#421,10.);
#125=VECTOR('',#424,10.);
#126=VECTOR('',#427,10.);
#127=VECTOR('',#428,10.);
#128=VECTOR('',#431,10.);
#129=VECTOR('',#432,10.);
#130=VECTOR('',#435,10.);
#131=VECTOR('',#438,10.);
#132=VECTOR('',#441,10.);
#133=VECTOR('',#448,10.);
#134=VECTOR('',#449,10.);
#135=VECTOR('',#458,4.5);
#136=VECTOR('',#461,2.75);
#137=VECTOR('',#468,10.);
#138=VECTOR('',#471,10.);
#139=VECTOR('',#472,10.);
#140=CIRCLE('',#359,5.);
#141=CIRCLE('',#360,5.);
#142=CIRCLE('',#370,5.);
#143=CIRCLE('',#371,5.);
#144=CIRCLE('',#372,4.5);
#145=CIRCLE('',#375,4.5);
#146=CIRCLE('',#376,2.75);
#147=CIRCLE('',#379,2.75);
#148=CIRCLE('',#381,5.);
#149=CIRCLE('',#384,5.);
#150=VERTEX_POINT('',#481);
#151=VERTEX_POINT('',#482);
#152=VERTEX_POINT('',#484);
#153=VERTEX_POINT('',#486);
#154=VERTEX_POINT('',#490);
#155=VERTEX_POINT('',#492);
#156=VERTEX_POINT('',#494);
#157=VERTEX_POINT('',#496);
#158=VERTEX_POINT('',#498);
#159=VERTEX_POINT('',#500);
#160=VERTEX_POINT('',#502);
#161=VERTEX_POINT('',#504);
#162=VERTEX_POINT('',#506);
#163=VERTEX_POINT('',#510);
#164=VERTEX_POINT('',#514);
#165=VERTEX_POINT('',#515);
#166=VERTEX_POINT('',#520);
#167=VERTEX_POINT('',#521);
#168=VERTEX_POINT('',#528);
#169=VERTEX_POINT('',#532);
#170=VERTEX_POINT('',#538);
#171=VERTEX_POINT('',#540);
#172=VERTEX_POINT('',#542);
#173=VERTEX_POINT('',#545);
#174=VERTEX_POINT('',#548);
#175=VERTEX_POINT('',#552);
#176=VERTEX_POINT('',#554);
#177=VERTEX_POINT('',#559);
#178=VERTEX_POINT('',#563);
#179=VERTEX_POINT('',#567);
#180=EDGE_CURVE('',#150,#151,#140,.T.);
#181=EDGE_CURVE('',#151,#152,#70,.T.);
#182=EDGE_CURVE('',#152,#153,#141,.T.);
#183=EDGE_CURVE('',#153,#150,#71,.T.);
#184=EDGE_CURVE('',#152,#154,#72,.T.);
#185=EDGE_CURVE('',#155,#154,#73,.T.);
#186=EDGE_CURVE('',#155,#156,#74,.T.);
#187=EDGE_CURVE('',#156,#157,#75,.T.);
#188=EDGE_CURVE('',#157,#158,#76,.T.);
#189=EDGE_CURVE('',#159,#158,#77,.T.);
#190=EDGE_CURVE('',#160,#159,#78,.T.);
#191=EDGE_CURVE('',#161,#160,#79,.T.);
#192=EDGE_CURVE('',#161,#162,#80,.T.);
#193=EDGE_CURVE('',#162,#153,#81,.T.);
#194=EDGE_CURVE('',#151,#163,#82,.T.);
#195=EDGE_CURVE('',#154,#163,#83,.T.);
#196=EDGE_CURVE('',#164,#165,#84,.T.);
#197=EDGE_CURVE('',#156,#164,#85,.T.);
#198=EDGE_CURVE('',#165,#155,#86,.T.);
#199=EDGE_CURVE('',#166,#167,#87,.T.);
#200=EDGE_CURVE('',#158,#166,#88,.T.);
#201=EDGE_CURVE('',#157,#167,#89,.T.);
#202=EDGE_CURVE('',#167,#164,#90,.T.);
#203=EDGE_CURVE('',#162,#168,#91,.T.);
#204=EDGE_CURVE('',#150,#168,#92,.T.);
#205=EDGE_CURVE('',#168,#169,#93,.T.);
#206=EDGE_CURVE('',#169,#161,#94,.T.);
#207=EDGE_CURVE('',#163,#165,#95,.T.);
#208=EDGE_CURVE('',#166,#170,#96,.T.);
#209=EDGE_CURVE('',#171,#170,#142,.T.);
#210=EDGE_CURVE('',#171,#172,#97,.T.);
#211=EDGE_CURVE('',#159,#172,#143,.T.);
#212=EDGE_CURVE('',#173,#173,#144,.T.);
#213=EDGE_CURVE('',#174,#169,#98,.T.);
#214=EDGE_CURVE('',#170,#174,#99,.T.);
#215=EDGE_CURVE('',#175,#175,#145,.T.);
#216=EDGE_CURVE('',#176,#176,#146,.T.);
#217=EDGE_CURVE('',#173,#175,#100,.T.);
#218=EDGE_CURVE('',#176,#177,#101,.T.);
#219=EDGE_CURVE('',#177,#177,#147,.T.);
#220=EDGE_CURVE('',#174,#178,#148,.T.);
#221=EDGE_CURVE('',#178,#171,#102,.T.);
#222=EDGE_CURVE('',#179,#178,#103,.T.);
#223=EDGE_CURVE('',#172,#179,#104,.T.);
#224=EDGE_CURVE('',#179,#160,#149,.T.);
#225=ORIENTED_EDGE('',*,*,#180,.T.);
#226=ORIENTED_EDGE('',*,*,#181,.T.);
#227=ORIENTED_EDGE('',*,*,#182,.T.);
#228=ORIENTED_EDGE('',*,*,#183,.T.);
#229=ORIENTED_EDGE('',*,*,#182,.F.);
#230=ORIENTED_EDGE('',*,*,#184,.T.);
#231=ORIENTED_EDGE('',*,*,#185,.F.);
#232=ORIENTED_EDGE('',*,*,#186,.T.);
#233=ORIENTED_EDGE('',*,*,#187,.T.);
#234=ORIENTED_EDGE('',*,*,#188,.T.);
#235=ORIENTED_EDGE('',*,*,#189,.F.);
#236=ORIENTED_EDGE('',*,*,#190,.F.);
#237=ORIENTED_EDGE('',*,*,#191,.F.);
#238=ORIENTED_EDGE('',*,*,#192,.T.);
#239=ORIENTED_EDGE('',*,*,#193,.T.);
#240=ORIENTED_EDGE('',*,*,#181,.F.);
#241=ORIENTED_EDGE('',*,*,#194,.T.);
#242=ORIENTED_EDGE('',*,*,#195,.F.);
#243=ORIENTED_EDGE('',*,*,#184,.F.);
#244=ORIENTED_EDGE('',*,*,#196,.F.);
#245=ORIENTED_EDGE('',*,*,#197,.F.);
#246=ORIENTED_EDGE('',*,*,#186,.F.);
#247=ORIENTED_EDGE('',*,*,#198,.F.);
#248=ORIENTED_EDGE('',*,*,#199,.F.);
#249=ORIENTED_EDGE('',*,*,#200,.F.);
#250=ORIENTED_EDGE('',*,*,#188,.F.);
#251=ORIENTED_EDGE('',*,*,#201,.T.);
#252=ORIENTED_EDGE('',*,*,#202,.F.);
#253=ORIENTED_EDGE('',*,*,#201,.F.);
#254=ORIENTED_EDGE('',*,*,#187,.F.);
#255=ORIENTED_EDGE('',*,*,#197,.T.);
#256=ORIENTED_EDGE('',*,*,#183,.F.);
#257=ORIENTED_EDGE('',*,*,#193,.F.);
#258=ORIENTED_EDGE('',*,*,#203,.T.);
#259=ORIENTED_EDGE('',*,*,#204,.F.);
#260=ORIENTED_EDGE('',*,*,#205,.F.);
#261=ORIENTED_EDGE('',*,*,#203,.F.);
#262=ORIENTED_EDGE('',*,*,#192,.F.);
#263=ORIENTED_EDGE('',*,*,#206,.F.);
#264=ORIENTED_EDGE('',*,*,#198,.T.);
#265=ORIENTED_EDGE('',*,*,#185,.T.);
#266=ORIENTED_EDGE('',*,*,#195,.T.);
#267=ORIENTED_EDGE('',*,*,#207,.T.);
#268=ORIENTED_EDGE('',*,*,#200,.T.);
#269=ORIENTED_EDGE('',*,*,#208,.T.);
#270=ORIENTED_EDGE('',*,*,#209,.F.);
#271=ORIENTED_EDGE('',*,*,#210,.T.);
#272=ORIENTED_EDGE('',*,*,#211,.F.);
#273=ORIENTED_EDGE('',*,*,#189,.T.);
#274=ORIENTED_EDGE('',*,*,#212,.T.);
#275=ORIENTED_EDGE('',*,*,#180,.F.);
#276=ORIENTED_EDGE('',*,*,#204,.T.);
#277=ORIENTED_EDGE('',*,*,#205,.T.);
#278=ORIENTED_EDGE('',*,*,#213,.F.);
#279=ORIENTED_EDGE('',*,*,#214,.F.);
#280=ORIENTED_EDGE('',*,*,#208,.F.);
#281=ORIENTED_EDGE('',*,*,#199,.T.);
#282=ORIENTED_EDGE('',*,*,#202,.T.);
#283=ORIENTED_EDGE('',*,*,#196,.T.);
#284=ORIENTED_EDGE('',*,*,#207,.F.);
#285=ORIENTED_EDGE('',*,*,#194,.F.);
#286=ORIENTED_EDGE('',*,*,#215,.T.);
#287=ORIENTED_EDGE('',*,*,#216,.F.);
#288=ORIENTED_EDGE('',*,*,#212,.F.);
#289=ORIENTED_EDGE('',*,*,#217,.T.);
#290=ORIENTED_EDGE('',*,*,#215,.F.);
#291=ORIENTED_EDGE('',*,*,#217,.F.);
#292=ORIENTED_EDGE('',*,*,#216,.T.);
#293=ORIENTED_EDGE('',*,*,#218,.T.);
#294=ORIENTED_EDGE('',*,*,#219,.F.);
#295=ORIENTED_EDGE('',*,*,#218,.F.);
#296=ORIENTED_EDGE('',*,*,#209,.T.);
#297=ORIENTED_EDGE('',*,*,#214,.T.);
#298=ORIENTED_EDGE('',*,*,#220,.T.);
#299=ORIENTED_EDGE('',*,*,#221,.T.);
#300=ORIENTED_EDGE('',*,*,#221,.F.);
#301=ORIENTED_EDGE('',*,*,#222,.F.);
#302=ORIENTED_EDGE('',*,*,#223,.F.);
#303=ORIENTED_EDGE('',*,*,#210,.F.);
#304=ORIENTED_EDGE('',*,*,#206,.T.);
#305=ORIENTED_EDGE('',*,*,#191,.T.);
#306=ORIENTED_EDGE('',*,*,#224,.F.);
#307=ORIENTED_EDGE('',*,*,#222,.T.);
#308=ORIENTED_EDGE('',*,*,#220,.F.);
#309=ORIENTED_EDGE('',*,*,#213,.T.);
#310=ORIENTED_EDGE('',*,*,#219,.T.);
#311=ORIENTED_EDGE('',*,*,#224,.T.);
#312=ORIENTED_EDGE('',*,*,#190,.T.);
#313=ORIENTED_EDGE('',*,*,#211,.T.);
#314=ORIENTED_EDGE('',*,*,#223,.T.);
#315=CYLINDRICAL_SURFACE('',#358,5.);
#316=CYLINDRICAL_SURFACE('',#377,4.5);
#317=CYLINDRICAL_SURFACE('',#378,2.75);
#318=CYLINDRICAL_SURFACE('',#380,5.);
#319=CYLINDRICAL_SURFACE('',#385,5.);
#320=ADVANCED_FACE('',(#31),#315,.T.);
#321=ADVANCED_FACE('',(#32),#18,.T.);
#322=ADVANCED_FACE('',(#33),#19,.T.);
#323=ADVANCED_FACE('',(#34),#20,.F.);
#324=ADVANCED_FACE('',(#35),#21,.F.);
#325=ADVANCED_FACE('',(#36),#22,.F.);
#326=ADVANCED_FACE('',(#37),#23,.F.);
#327=ADVANCED_FACE('',(#38),#24,.F.);
#328=ADVANCED_FACE('',(#39),#25,.T.);
#329=ADVANCED_FACE('',(#40,#15),#26,.T.);
#330=ADVANCED_FACE('',(#41),#27,.T.);
#331=ADVANCED_FACE('',(#42,#16),#28,.T.);
#332=ADVANCED_FACE('',(#43),#316,.F.);
#333=ADVANCED_FACE('',(#44),#317,.F.);
#334=ADVANCED_FACE('',(#45),#318,.T.);
#335=ADVANCED_FACE('',(#46),#29,.T.);
#336=ADVANCED_FACE('',(#47,#17),#30,.T.);
#337=ADVANCED_FACE('',(#48),#319,.T.);
#338=CLOSED_SHELL('',(#320,#321,#322,#323,#324,#325,#326,#327,#328,#329,
#330,#331,#332,#333,#334,#335,#336,#337));
#339=DERIVED_UNIT_ELEMENT(#341,1.);
#340=DERIVED_UNIT_ELEMENT(#578,-3.);
#341=(
MASS_UNIT()
NAMED_UNIT(*)
SI_UNIT($,.GRAM.)
);
#342=DERIVED_UNIT((#339,#340));
#343=MEASURE_REPRESENTATION_ITEM('density measure',
POSITIVE_RATIO_MEASURE(1.),#342);
#344=PROPERTY_DEFINITION_REPRESENTATION(#349,#346);
#345=PROPERTY_DEFINITION_REPRESENTATION(#350,#347);
#346=REPRESENTATION('material name',(#348),#575);
#347=REPRESENTATION('density',(#343),#575);
#348=DESCRIPTIVE_REPRESENTATION_ITEM('Poliammide grigio',
'Poliammide grigio');
#349=PROPERTY_DEFINITION('material property','material name',#585);
#350=PROPERTY_DEFINITION('material property','density of part',#585);
#351=DATE_TIME_ROLE('creation_date');
#352=APPLIED_DATE_AND_TIME_ASSIGNMENT(#353,#351,(#585));
#353=DATE_AND_TIME(#354,#355);
#354=CALENDAR_DATE(2022,11,3);
#355=LOCAL_TIME(0,0,0.,#356);
#356=COORDINATED_UNIVERSAL_TIME_OFFSET(0,0,.BEHIND.);
#357=AXIS2_PLACEMENT_3D('placement',#479,#386,#387);
#358=AXIS2_PLACEMENT_3D('',#480,#388,#389);
#359=AXIS2_PLACEMENT_3D('',#483,#390,#391);
#360=AXIS2_PLACEMENT_3D('',#487,#393,#394);
#361=AXIS2_PLACEMENT_3D('',#489,#396,#397);
#362=AXIS2_PLACEMENT_3D('',#509,#408,#409);
#363=AXIS2_PLACEMENT_3D('',#513,#412,#413);
#364=AXIS2_PLACEMENT_3D('',#519,#417,#418);
#365=AXIS2_PLACEMENT_3D('',#525,#422,#423);
#366=AXIS2_PLACEMENT_3D('',#527,#425,#426);
#367=AXIS2_PLACEMENT_3D('',#531,#429,#430);
#368=AXIS2_PLACEMENT_3D('',#535,#433,#434);
#369=AXIS2_PLACEMENT_3D('',#537,#436,#437);
#370=AXIS2_PLACEMENT_3D('',#541,#439,#440);
#371=AXIS2_PLACEMENT_3D('',#544,#442,#443);
#372=AXIS2_PLACEMENT_3D('',#546,#444,#445);
#373=AXIS2_PLACEMENT_3D('',#547,#446,#447);
#374=AXIS2_PLACEMENT_3D('',#551,#450,#451);
#375=AXIS2_PLACEMENT_3D('',#553,#452,#453);
#376=AXIS2_PLACEMENT_3D('',#555,#454,#455);
#377=AXIS2_PLACEMENT_3D('',#556,#456,#457);
#378=AXIS2_PLACEMENT_3D('',#558,#459,#460);
#379=AXIS2_PLACEMENT_3D('',#561,#462,#463);
#380=AXIS2_PLACEMENT_3D('',#562,#464,#465);
#381=AXIS2_PLACEMENT_3D('',#564,#466,#467);
#382=AXIS2_PLACEMENT_3D('',#566,#469,#470);
#383=AXIS2_PLACEMENT_3D('',#570,#473,#474);
#384=AXIS2_PLACEMENT_3D('',#571,#475,#476);
#385=AXIS2_PLACEMENT_3D('',#572,#477,#478);
#386=DIRECTION('axis',(0.,0.,1.));
#387=DIRECTION('refdir',(1.,0.,0.));
#388=DIRECTION('center_axis',(0.,1.,0.));
#389=DIRECTION('ref_axis',(0.707106781186548,0.,-0.707106781186547));
#390=DIRECTION('center_axis',(0.,-1.,0.));
#391=DIRECTION('ref_axis',(0.707106781186548,0.,-0.707106781186547));
#392=DIRECTION('',(0.,-1.,0.));
#393=DIRECTION('center_axis',(0.,1.,0.));
#394=DIRECTION('ref_axis',(0.707106781186548,0.,-0.707106781186547));
#395=DIRECTION('',(0.,1.,0.));
#396=DIRECTION('center_axis',(0.,-1.,0.));
#397=DIRECTION('ref_axis',(1.,0.,0.));
#398=DIRECTION('',(0.,0.,1.));
#399=DIRECTION('',(1.,0.,0.));
#400=DIRECTION('',(9.25185853854297E-16,0.,-1.));
#401=DIRECTION('',(-1.,0.,-3.1720657846433E-16));
#402=DIRECTION('',(7.40148683083436E-16,0.,1.));
#403=DIRECTION('',(1.,0.,0.));
#404=DIRECTION('',(0.,0.,1.));
#405=DIRECTION('',(-1.,0.,0.));
#406=DIRECTION('',(0.,0.,1.));
#407=DIRECTION('',(1.,0.,1.38777878078145E-16));
#408=DIRECTION('center_axis',(1.,0.,0.));
#409=DIRECTION('ref_axis',(0.,1.,0.));
#410=DIRECTION('',(0.,0.,1.));
#411=DIRECTION('',(0.,1.,0.));
#412=DIRECTION('center_axis',(1.,0.,9.25185853854297E-16));
#413=DIRECTION('ref_axis',(9.25185853854297E-16,0.,-1.));
#414=DIRECTION('',(-9.25185853854297E-16,0.,1.));
#415=DIRECTION('',(0.,1.,0.));
#416=DIRECTION('',(0.,-1.,0.));
#417=DIRECTION('center_axis',(-1.,0.,7.40148683083437E-16));
#418=DIRECTION('ref_axis',(7.40148683083436E-16,0.,1.));
#419=DIRECTION('',(-7.40148683083436E-16,0.,-1.));
#420=DIRECTION('',(0.,1.,0.));
#421=DIRECTION('',(0.,1.,0.));
#422=DIRECTION('center_axis',(3.1720657846433E-16,0.,-1.));
#423=DIRECTION('ref_axis',(-1.,0.,-3.1720657846433E-16));
#424=DIRECTION('',(1.,0.,3.1720657846433E-16));
#425=DIRECTION('center_axis',(-1.38777878078145E-16,0.,1.));
#426=DIRECTION('ref_axis',(1.,0.,1.38777878078145E-16));
#427=DIRECTION('',(0.,1.,0.));
#428=DIRECTION('',(-1.,0.,-1.38777878078145E-16));
#429=DIRECTION('center_axis',(-1.,0.,0.));
#430=DIRECTION('ref_axis',(0.,0.,1.));
#431=DIRECTION('',(0.,0.,-1.));
#432=DIRECTION('',(0.,-1.,0.));
#433=DIRECTION('center_axis',(0.,0.,1.));
#434=DIRECTION('ref_axis',(1.,0.,0.));
#435=DIRECTION('',(-1.,0.,0.));
#436=DIRECTION('center_axis',(0.,0.,1.));
#437=DIRECTION('ref_axis',(1.,0.,0.));
#438=DIRECTION('',(-1.,0.,0.));
#439=DIRECTION('center_axis',(0.,0.,-1.));
#440=DIRECTION('ref_axis',(-0.707106781186547,0.707106781186547,0.));
#441=DIRECTION('',(0.,-1.,0.));
#442=DIRECTION('center_axis',(0.,0.,-1.));
#443=DIRECTION('ref_axis',(-0.707106781186547,-0.707106781186547,0.));
#444=DIRECTION('center_axis',(0.,0.,-1.));
#445=DIRECTION('ref_axis',(1.,0.,0.));
#446=DIRECTION('center_axis',(0.,1.,0.));
#447=DIRECTION('ref_axis',(-1.,0.,0.));
#448=DIRECTION('',(1.,0.,0.));
#449=DIRECTION('',(0.,0.,-1.));
#450=DIRECTION('center_axis',(0.,0.,1.));
#451=DIRECTION('ref_axis',(1.,0.,0.));
#452=DIRECTION('center_axis',(0.,0.,1.));
#453=DIRECTION('ref_axis',(1.,0.,0.));
#454=DIRECTION('center_axis',(0.,0.,1.));
#455=DIRECTION('ref_axis',(1.,0.,0.));
#456=DIRECTION('center_axis',(0.,0.,1.));
#457=DIRECTION('ref_axis',(1.,0.,0.));
#458=DIRECTION('',(0.,0.,-1.));
#459=DIRECTION('center_axis',(0.,0.,1.));
#460=DIRECTION('ref_axis',(1.,0.,0.));
#461=DIRECTION('',(0.,0.,-1.));
#462=DIRECTION('center_axis',(0.,0.,1.));
#463=DIRECTION('ref_axis',(1.,0.,0.));
#464=DIRECTION('center_axis',(0.,0.,1.));
#465=DIRECTION('ref_axis',(-0.707106781186547,0.707106781186547,0.));
#466=DIRECTION('center_axis',(0.,0.,1.));
#467=DIRECTION('ref_axis',(-0.707106781186547,0.707106781186547,0.));
#468=DIRECTION('',(0.,0.,1.));
#469=DIRECTION('center_axis',(-1.,0.,0.));
#470=DIRECTION('ref_axis',(0.,-1.,0.));
#471=DIRECTION('',(0.,1.,0.));
#472=DIRECTION('',(0.,0.,-1.));
#473=DIRECTION('center_axis',(0.,0.,-1.));
#474=DIRECTION('ref_axis',(-1.,0.,0.));
#475=DIRECTION('center_axis',(0.,0.,1.));
#476=DIRECTION('ref_axis',(-0.707106781186547,-0.707106781186547,0.));
#477=DIRECTION('center_axis',(0.,0.,-1.));
#478=DIRECTION('ref_axis',(-0.707106781186547,-0.707106781186547,0.));
#479=CARTESIAN_POINT('',(0.,0.,0.));
#480=CARTESIAN_POINT('Origin',(9.5,-12.25,0.999999999999999));
#481=CARTESIAN_POINT('',(9.5,12.25,-4.));
#482=CARTESIAN_POINT('',(14.5,12.25,0.999999999999999));
#483=CARTESIAN_POINT('Origin',(9.5,12.25,0.999999999999999));
#484=CARTESIAN_POINT('',(14.5,-12.25,0.999999999999999));
#485=CARTESIAN_POINT('',(14.5,-12.25,0.999999999999999));
#486=CARTESIAN_POINT('',(9.5,-12.25,-4.));
#487=CARTESIAN_POINT('Origin',(9.5,-12.25,0.999999999999999));
#488=CARTESIAN_POINT('',(9.5,-12.25,-4.));
#489=CARTESIAN_POINT('Origin',(-14.5,-12.25,0.));
#490=CARTESIAN_POINT('',(14.5,-12.25,5.5));
#491=CARTESIAN_POINT('',(14.5,-12.25,0.));
#492=CARTESIAN_POINT('',(13.5,-12.25,5.5));
#493=CARTESIAN_POINT('',(-14.5,-12.25,5.5));
#494=CARTESIAN_POINT('',(13.5,-12.25,4.));
#495=CARTESIAN_POINT('',(13.5,-12.25,2.75000000000001));
#496=CARTESIAN_POINT('',(6.5,-12.25,4.));
#497=CARTESIAN_POINT('',(-0.5,-12.25,4.));
#498=CARTESIAN_POINT('',(6.5,-12.25,5.5));
#499=CARTESIAN_POINT('',(6.5,-12.25,1.99999999999999));
#500=CARTESIAN_POINT('',(-9.5,-12.25,5.5));
#501=CARTESIAN_POINT('',(-14.5,-12.25,5.5));
#502=CARTESIAN_POINT('',(-9.5,-12.25,-5.5));
#503=CARTESIAN_POINT('',(-9.5,-12.25,0.));
#504=CARTESIAN_POINT('',(6.5,-12.25,-5.5));
#505=CARTESIAN_POINT('',(-14.5,-12.25,-5.5));
#506=CARTESIAN_POINT('',(6.5,-12.25,-4.));
#507=CARTESIAN_POINT('',(6.5,-12.25,-2.75));
#508=CARTESIAN_POINT('',(-4.,-12.25,-4.));
#509=CARTESIAN_POINT('Origin',(14.5,-12.25,0.));
#510=CARTESIAN_POINT('',(14.5,12.25,5.5));
#511=CARTESIAN_POINT('',(14.5,12.25,0.));
#512=CARTESIAN_POINT('',(14.5,-12.25,5.5));
#513=CARTESIAN_POINT('Origin',(13.5,-12.25,5.5));
#514=CARTESIAN_POINT('',(13.5,12.25,4.));
#515=CARTESIAN_POINT('',(13.5,12.25,5.5));
#516=CARTESIAN_POINT('',(13.5,12.25,2.75));
#517=CARTESIAN_POINT('',(13.5,-12.25,4.));
#518=CARTESIAN_POINT('',(13.5,-6.125,5.5));
#519=CARTESIAN_POINT('Origin',(6.5,-12.25,4.));
#520=CARTESIAN_POINT('',(6.5,12.25,5.5));
#521=CARTESIAN_POINT('',(6.5,12.25,4.));
#522=CARTESIAN_POINT('',(6.5,12.25,2.));
#523=CARTESIAN_POINT('',(6.5,-6.125,5.5));
#524=CARTESIAN_POINT('',(6.5,-12.25,4.));
#525=CARTESIAN_POINT('Origin',(13.5,-12.25,4.));
#526=CARTESIAN_POINT('',(14.,12.25,4.));
#527=CARTESIAN_POINT('Origin',(6.5,-12.25,-4.));
#528=CARTESIAN_POINT('',(6.5,12.25,-4.));
#529=CARTESIAN_POINT('',(6.5,-12.25,-4.));
#530=CARTESIAN_POINT('',(10.5,12.25,-4.));
#531=CARTESIAN_POINT('Origin',(6.5,-12.25,-5.5));
#532=CARTESIAN_POINT('',(6.5,12.25,-5.5));
#533=CARTESIAN_POINT('',(6.5,12.25,-2.75));
#534=CARTESIAN_POINT('',(6.5,-6.125,-5.5));
#535=CARTESIAN_POINT('Origin',(0.,0.,5.5));
#536=CARTESIAN_POINT('',(14.5,12.25,5.5));
#537=CARTESIAN_POINT('Origin',(0.,0.,5.5));
#538=CARTESIAN_POINT('',(-9.5,12.25,5.5));
#539=CARTESIAN_POINT('',(14.5,12.25,5.5));
#540=CARTESIAN_POINT('',(-14.5,7.25,5.5));
#541=CARTESIAN_POINT('Origin',(-9.5,7.25,5.5));
#542=CARTESIAN_POINT('',(-14.5,-7.25,5.5));
#543=CARTESIAN_POINT('',(-14.5,12.25,5.5));
#544=CARTESIAN_POINT('Origin',(-9.5,-7.25,5.5));
#545=CARTESIAN_POINT('',(-9.,-5.51091059616309E-16,5.5));
#546=CARTESIAN_POINT('Origin',(-4.5,0.,5.5));
#547=CARTESIAN_POINT('Origin',(14.5,12.25,0.));
#548=CARTESIAN_POINT('',(-9.5,12.25,-5.5));
#549=CARTESIAN_POINT('',(14.5,12.25,-5.5));
#550=CARTESIAN_POINT('',(-9.5,12.25,0.));
#551=CARTESIAN_POINT('Origin',(-4.5,0.,-0.5));
#552=CARTESIAN_POINT('',(-9.,-5.51091059616309E-16,-0.5));
#553=CARTESIAN_POINT('Origin',(-4.5,0.,-0.5));
#554=CARTESIAN_POINT('',(-7.25,-3.36777869765522E-16,-0.5));
#555=CARTESIAN_POINT('Origin',(-4.5,0.,-0.5));
#556=CARTESIAN_POINT('Origin',(-4.5,0.,2.5));
#557=CARTESIAN_POINT('',(-9.,-5.51091059616309E-16,2.5));
#558=CARTESIAN_POINT('Origin',(-4.5,0.,-34.0253083479434));
#559=CARTESIAN_POINT('',(-7.25,-3.36777869765522E-16,-5.5));
#560=CARTESIAN_POINT('',(-7.25,-3.36777869765522E-16,-34.0253083479434));
#561=CARTESIAN_POINT('Origin',(-4.5,0.,-5.5));
#562=CARTESIAN_POINT('Origin',(-9.5,7.25,0.));
#563=CARTESIAN_POINT('',(-14.5,7.25,-5.5));
#564=CARTESIAN_POINT('Origin',(-9.5,7.25,-5.5));
#565=CARTESIAN_POINT('',(-14.5,7.25,0.));
#566=CARTESIAN_POINT('Origin',(-14.5,12.25,0.));
#567=CARTESIAN_POINT('',(-14.5,-7.25,-5.5));
#568=CARTESIAN_POINT('',(-14.5,12.25,-5.5));
#569=CARTESIAN_POINT('',(-14.5,-7.25,0.));
#570=CARTESIAN_POINT('Origin',(0.,0.,-5.5));
#571=CARTESIAN_POINT('Origin',(-9.5,-7.25,-5.5));
#572=CARTESIAN_POINT('Origin',(-9.5,-7.25,0.));
#573=UNCERTAINTY_MEASURE_WITH_UNIT(LENGTH_MEASURE(0.01),#577,
'DISTANCE_ACCURACY_VALUE',
'Maximum model space distance between geometric entities at asserted c
onnectivities');
#574=UNCERTAINTY_MEASURE_WITH_UNIT(LENGTH_MEASURE(0.01),#577,
'DISTANCE_ACCURACY_VALUE',
'Maximum model space distance between geometric entities at asserted c
onnectivities');
#575=(
GEOMETRIC_REPRESENTATION_CONTEXT(3)
GLOBAL_UNCERTAINTY_ASSIGNED_CONTEXT((#573))
GLOBAL_UNIT_ASSIGNED_CONTEXT((#577,#579,#580))
REPRESENTATION_CONTEXT('','3D')
);
#576=(
GEOMETRIC_REPRESENTATION_CONTEXT(3)
GLOBAL_UNCERTAINTY_ASSIGNED_CONTEXT((#574))
GLOBAL_UNIT_ASSIGNED_CONTEXT((#577,#579,#580))
REPRESENTATION_CONTEXT('','3D')
);
#577=(
LENGTH_UNIT()
NAMED_UNIT(*)
SI_UNIT(.MILLI.,.METRE.)
);
#578=(
LENGTH_UNIT()
NAMED_UNIT(*)
SI_UNIT(.CENTI.,.METRE.)
);
#579=(
NAMED_UNIT(*)
PLANE_ANGLE_UNIT()
SI_UNIT($,.RADIAN.)
);
#580=(
NAMED_UNIT(*)
SI_UNIT($,.STERADIAN.)
SOLID_ANGLE_UNIT()
);
#581=SHAPE_DEFINITION_REPRESENTATION(#582,#583);
#582=PRODUCT_DEFINITION_SHAPE('',$,#585);
#583=SHAPE_REPRESENTATION('',(#357),#575);
#584=PRODUCT_DEFINITION_CONTEXT('part definition',#589,'design');
#585=PRODUCT_DEFINITION('BFR45','BFR45',#586,#584);
#586=PRODUCT_DEFINITION_FORMATION('A00',$,#591);
#587=PRODUCT_RELATED_PRODUCT_CATEGORY('BFR45','BFR45',(#591));
#588=APPLICATION_PROTOCOL_DEFINITION('international standard',
'automotive_design',2009,#589);
#589=APPLICATION_CONTEXT(
'Core Data for Automotive Mechanical Design Process');
#590=PRODUCT_CONTEXT('part definition',#589,'mechanical');
#591=PRODUCT('BFR45','BFR45',
'Blocchetto di fissaggio rapido 29x24.5x11',(#590));
#592=PRESENTATION_STYLE_ASSIGNMENT((#593));
#593=SURFACE_STYLE_USAGE(.BOTH.,#596);
#594=SURFACE_STYLE_RENDERING_WITH_PROPERTIES($,#600,(#595));
#595=SURFACE_STYLE_TRANSPARENT(0.);
#596=SURFACE_SIDE_STYLE('',(#597,#594));
#597=SURFACE_STYLE_FILL_AREA(#598);
#598=FILL_AREA_STYLE('',(#599));
#599=FILL_AREA_STYLE_COLOUR('',#600);
#600=COLOUR_RGB('',0.749019607843137,0.749019607843137,0.749019607843137);
ENDSEC;
END-ISO-10303-21;
