ISO-10303-21;
HEADER;
/* Generated by software containing ST-Developer
 * from STEP Tools, Inc. (www.steptools.com) 
 */

FILE_DESCRIPTION(
/* description */ ('Boccola di riduzione M14-M10 lungh. 20 mm'),
/* implementation_level */ '2;1');

FILE_NAME(
/* name */ 
'C:\\Users\\Stefan.Nesic\\Desktop\\01010 STEP da zippare\\B51-14-10.st
p',
/* time_stamp */ '2022-06-17T12:14:48+02:00',
/* author */ ('Davide'),
/* organization */ (''),
/* preprocessor_version */ 'ST-DEVELOPER v18.1',
/* originating_system */ 'Autodesk Inventor 2021',
/* authorisation */ '');

FILE_SCHEMA (('AUTOMOTIVE_DESIGN { 1 0 10303 214 3 1 1 }'));
ENDSEC;

DATA;
#10=MECHANICAL_DESIGN_GEOMETRIC_PRESENTATION_REPRESENTATION('',(#13),#231);
#11=SHAPE_REPRESENTATION_RELATIONSHIP('SRR','None',#238,#12);
#12=ADVANCED_BREP_SHAPE_REPRESENTATION('',(#14),#230);
#13=STYLED_ITEM('',(#247),#14);
#14=MANIFOLD_SOLID_BREP('Solido1',#121);
#15=CYLINDRICAL_SURFACE('',#146,5.);
#16=CYLINDRICAL_SURFACE('',#150,7.);
#17=FACE_BOUND('',#31,.T.);
#18=FACE_BOUND('',#37,.T.);
#19=PLANE('',#144);
#20=PLANE('',#154);
#21=FACE_OUTER_BOUND('',#29,.T.);
#22=FACE_OUTER_BOUND('',#30,.T.);
#23=FACE_OUTER_BOUND('',#32,.T.);
#24=FACE_OUTER_BOUND('',#33,.T.);
#25=FACE_OUTER_BOUND('',#34,.T.);
#26=FACE_OUTER_BOUND('',#35,.T.);
#27=FACE_OUTER_BOUND('',#36,.T.);
#28=FACE_OUTER_BOUND('',#38,.T.);
#29=EDGE_LOOP('',(#81,#82,#83,#84));
#30=EDGE_LOOP('',(#85));
#31=EDGE_LOOP('',(#86));
#32=EDGE_LOOP('',(#87,#88,#89,#90));
#33=EDGE_LOOP('',(#91,#92,#93,#94));
#34=EDGE_LOOP('',(#95,#96,#97,#98));
#35=EDGE_LOOP('',(#99,#100,#101,#102));
#36=EDGE_LOOP('',(#103));
#37=EDGE_LOOP('',(#104));
#38=EDGE_LOOP('',(#105,#106,#107,#108));
#39=LINE('',#202,#45);
#40=LINE('',#209,#46);
#41=LINE('',#213,#47);
#42=LINE('',#218,#48);
#43=LINE('',#222,#49);
#44=LINE('',#227,#50);
#45=VECTOR('',#163,5.25);
#46=VECTOR('',#172,5.);
#47=VECTOR('',#177,6.75);
#48=VECTOR('',#184,7.);
#49=VECTOR('',#189,5.25);
#50=VECTOR('',#196,6.75);
#51=CIRCLE('',#142,5.5);
#52=CIRCLE('',#143,5.);
#53=CIRCLE('',#145,6.5);
#54=CIRCLE('',#147,5.);
#55=CIRCLE('',#149,7.);
#56=CIRCLE('',#151,7.);
#57=CIRCLE('',#153,5.5);
#58=CIRCLE('',#155,6.5);
#59=VERTEX_POINT('',#199);
#60=VERTEX_POINT('',#201);
#61=VERTEX_POINT('',#205);
#62=VERTEX_POINT('',#208);
#63=VERTEX_POINT('',#212);
#64=VERTEX_POINT('',#216);
#65=VERTEX_POINT('',#220);
#66=VERTEX_POINT('',#224);
#67=EDGE_CURVE('',#59,#59,#51,.T.);
#68=EDGE_CURVE('',#59,#60,#39,.T.);
#69=EDGE_CURVE('',#60,#60,#52,.T.);
#70=EDGE_CURVE('',#61,#61,#53,.T.);
#71=EDGE_CURVE('',#60,#62,#40,.T.);
#72=EDGE_CURVE('',#62,#62,#54,.T.);
#73=EDGE_CURVE('',#61,#63,#41,.T.);
#74=EDGE_CURVE('',#63,#63,#55,.T.);
#75=EDGE_CURVE('',#64,#64,#56,.T.);
#76=EDGE_CURVE('',#64,#63,#42,.T.);
#77=EDGE_CURVE('',#65,#65,#57,.T.);
#78=EDGE_CURVE('',#65,#62,#43,.T.);
#79=EDGE_CURVE('',#66,#66,#58,.T.);
#80=EDGE_CURVE('',#66,#64,#44,.T.);
#81=ORIENTED_EDGE('',*,*,#67,.T.);
#82=ORIENTED_EDGE('',*,*,#68,.T.);
#83=ORIENTED_EDGE('',*,*,#69,.T.);
#84=ORIENTED_EDGE('',*,*,#68,.F.);
#85=ORIENTED_EDGE('',*,*,#70,.F.);
#86=ORIENTED_EDGE('',*,*,#67,.F.);
#87=ORIENTED_EDGE('',*,*,#69,.F.);
#88=ORIENTED_EDGE('',*,*,#71,.T.);
#89=ORIENTED_EDGE('',*,*,#72,.F.);
#90=ORIENTED_EDGE('',*,*,#71,.F.);
#91=ORIENTED_EDGE('',*,*,#70,.T.);
#92=ORIENTED_EDGE('',*,*,#73,.T.);
#93=ORIENTED_EDGE('',*,*,#74,.T.);
#94=ORIENTED_EDGE('',*,*,#73,.F.);
#95=ORIENTED_EDGE('',*,*,#75,.F.);
#96=ORIENTED_EDGE('',*,*,#76,.T.);
#97=ORIENTED_EDGE('',*,*,#74,.F.);
#98=ORIENTED_EDGE('',*,*,#76,.F.);
#99=ORIENTED_EDGE('',*,*,#77,.T.);
#100=ORIENTED_EDGE('',*,*,#78,.T.);
#101=ORIENTED_EDGE('',*,*,#72,.T.);
#102=ORIENTED_EDGE('',*,*,#78,.F.);
#103=ORIENTED_EDGE('',*,*,#79,.F.);
#104=ORIENTED_EDGE('',*,*,#77,.F.);
#105=ORIENTED_EDGE('',*,*,#79,.T.);
#106=ORIENTED_EDGE('',*,*,#80,.T.);
#107=ORIENTED_EDGE('',*,*,#75,.T.);
#108=ORIENTED_EDGE('',*,*,#80,.F.);
#109=CONICAL_SURFACE('',#141,5.25,0.785398163397448);
#110=CONICAL_SURFACE('',#148,6.75,0.785398163397448);
#111=CONICAL_SURFACE('',#152,5.25,0.785398163397448);
#112=CONICAL_SURFACE('',#156,6.75,0.785398163397448);
#113=ADVANCED_FACE('',(#21),#109,.F.);
#114=ADVANCED_FACE('',(#22,#17),#19,.F.);
#115=ADVANCED_FACE('',(#23),#15,.F.);
#116=ADVANCED_FACE('',(#24),#110,.T.);
#117=ADVANCED_FACE('',(#25),#16,.T.);
#118=ADVANCED_FACE('',(#26),#111,.F.);
#119=ADVANCED_FACE('',(#27,#18),#20,.T.);
#120=ADVANCED_FACE('',(#28),#112,.T.);
#121=CLOSED_SHELL('',(#113,#114,#115,#116,#117,#118,#119,#120));
#122=DERIVED_UNIT_ELEMENT(#124,1.);
#123=DERIVED_UNIT_ELEMENT(#233,-3.);
#124=(
MASS_UNIT()
NAMED_UNIT(*)
SI_UNIT($,.GRAM.)
);
#125=DERIVED_UNIT((#122,#123));
#126=MEASURE_REPRESENTATION_ITEM('density measure',
POSITIVE_RATIO_MEASURE(7.85),#125);
#127=PROPERTY_DEFINITION_REPRESENTATION(#132,#129);
#128=PROPERTY_DEFINITION_REPRESENTATION(#133,#130);
#129=REPRESENTATION('material name',(#131),#230);
#130=REPRESENTATION('density',(#126),#230);
#131=DESCRIPTIVE_REPRESENTATION_ITEM('Acciaio','Acciaio');
#132=PROPERTY_DEFINITION('material property','material name',#240);
#133=PROPERTY_DEFINITION('material property','density of part',#240);
#134=DATE_TIME_ROLE('creation_date');
#135=APPLIED_DATE_AND_TIME_ASSIGNMENT(#136,#134,(#240));
#136=DATE_AND_TIME(#137,#138);
#137=CALENDAR_DATE(2019,27,2);
#138=LOCAL_TIME(0,0,0.,#139);
#139=COORDINATED_UNIVERSAL_TIME_OFFSET(0,0,.BEHIND.);
#140=AXIS2_PLACEMENT_3D('placement',#197,#157,#158);
#141=AXIS2_PLACEMENT_3D('',#198,#159,#160);
#142=AXIS2_PLACEMENT_3D('',#200,#161,#162);
#143=AXIS2_PLACEMENT_3D('',#203,#164,#165);
#144=AXIS2_PLACEMENT_3D('',#204,#166,#167);
#145=AXIS2_PLACEMENT_3D('',#206,#168,#169);
#146=AXIS2_PLACEMENT_3D('',#207,#170,#171);
#147=AXIS2_PLACEMENT_3D('',#210,#173,#174);
#148=AXIS2_PLACEMENT_3D('',#211,#175,#176);
#149=AXIS2_PLACEMENT_3D('',#214,#178,#179);
#150=AXIS2_PLACEMENT_3D('',#215,#180,#181);
#151=AXIS2_PLACEMENT_3D('',#217,#182,#183);
#152=AXIS2_PLACEMENT_3D('',#219,#185,#186);
#153=AXIS2_PLACEMENT_3D('',#221,#187,#188);
#154=AXIS2_PLACEMENT_3D('',#223,#190,#191);
#155=AXIS2_PLACEMENT_3D('',#225,#192,#193);
#156=AXIS2_PLACEMENT_3D('',#226,#194,#195);
#157=DIRECTION('axis',(0.,0.,1.));
#158=DIRECTION('refdir',(1.,0.,0.));
#159=DIRECTION('center_axis',(0.,-1.,0.));
#160=DIRECTION('ref_axis',(1.,0.,0.));
#161=DIRECTION('center_axis',(0.,-1.,0.));
#162=DIRECTION('ref_axis',(1.,0.,0.));
#163=DIRECTION('',(0.707106781186547,0.707106781186547,8.65956056235493E-17));
#164=DIRECTION('center_axis',(0.,1.,0.));
#165=DIRECTION('ref_axis',(1.,0.,0.));
#166=DIRECTION('center_axis',(0.,1.,0.));
#167=DIRECTION('ref_axis',(0.,0.,1.));
#168=DIRECTION('center_axis',(0.,1.,0.));
#169=DIRECTION('ref_axis',(1.,0.,0.));
#170=DIRECTION('center_axis',(0.,1.,0.));
#171=DIRECTION('ref_axis',(1.,0.,0.));
#172=DIRECTION('',(0.,1.,0.));
#173=DIRECTION('center_axis',(0.,-1.,0.));
#174=DIRECTION('ref_axis',(1.,0.,0.));
#175=DIRECTION('center_axis',(0.,1.,0.));
#176=DIRECTION('ref_axis',(1.,0.,0.));
#177=DIRECTION('',(-0.707106781186547,0.707106781186547,-8.65956056235493E-17));
#178=DIRECTION('center_axis',(0.,-1.,0.));
#179=DIRECTION('ref_axis',(1.,0.,0.));
#180=DIRECTION('center_axis',(0.,1.,0.));
#181=DIRECTION('ref_axis',(1.,0.,0.));
#182=DIRECTION('center_axis',(0.,1.,0.));
#183=DIRECTION('ref_axis',(1.,0.,0.));
#184=DIRECTION('',(0.,-1.,0.));
#185=DIRECTION('center_axis',(0.,1.,0.));
#186=DIRECTION('ref_axis',(1.,0.,0.));
#187=DIRECTION('center_axis',(0.,1.,0.));
#188=DIRECTION('ref_axis',(1.,0.,0.));
#189=DIRECTION('',(0.707106781186547,-0.707106781186547,-8.65956056235493E-17));
#190=DIRECTION('center_axis',(0.,1.,0.));
#191=DIRECTION('ref_axis',(0.,0.,1.));
#192=DIRECTION('center_axis',(0.,-1.,0.));
#193=DIRECTION('ref_axis',(1.,0.,0.));
#194=DIRECTION('center_axis',(0.,-1.,0.));
#195=DIRECTION('ref_axis',(1.,0.,0.));
#196=DIRECTION('',(-0.707106781186547,-0.707106781186547,8.65956056235493E-17));
#197=CARTESIAN_POINT('',(0.,0.,0.));
#198=CARTESIAN_POINT('Origin',(0.,-9.75,0.));
#199=CARTESIAN_POINT('',(-5.5,-10.,-6.73555739531044E-16));
#200=CARTESIAN_POINT('Origin',(0.,-10.,0.));
#201=CARTESIAN_POINT('',(-5.,-9.5,6.12323399573677E-16));
#202=CARTESIAN_POINT('',(-5.25,-9.75,-6.42939569552361E-16));
#203=CARTESIAN_POINT('Origin',(0.,-9.5,0.));
#204=CARTESIAN_POINT('Origin',(3.35776545337204E-16,-10.,0.));
#205=CARTESIAN_POINT('',(-6.5,-10.,7.9602041944578E-16));
#206=CARTESIAN_POINT('Origin',(0.,-10.,0.));
#207=CARTESIAN_POINT('Origin',(0.,0.,0.));
#208=CARTESIAN_POINT('',(-5.,9.5,-6.12323399573677E-16));
#209=CARTESIAN_POINT('',(-5.,0.,6.12323399573677E-16));
#210=CARTESIAN_POINT('Origin',(0.,9.5,0.));
#211=CARTESIAN_POINT('Origin',(0.,-9.75,0.));
#212=CARTESIAN_POINT('',(-7.,-9.5,-8.57252759403147E-16));
#213=CARTESIAN_POINT('',(-6.75,-9.75,-8.26636589424463E-16));
#214=CARTESIAN_POINT('Origin',(0.,-9.5,0.));
#215=CARTESIAN_POINT('Origin',(0.,0.,0.));
#216=CARTESIAN_POINT('',(-7.,9.5,8.57252759403147E-16));
#217=CARTESIAN_POINT('Origin',(0.,9.5,0.));
#218=CARTESIAN_POINT('',(-7.,0.,8.57252759403147E-16));
#219=CARTESIAN_POINT('Origin',(0.,9.75,0.));
#220=CARTESIAN_POINT('',(-5.5,10.,6.73555739531044E-16));
#221=CARTESIAN_POINT('Origin',(0.,10.,0.));
#222=CARTESIAN_POINT('',(-5.25,9.75,6.42939569552361E-16));
#223=CARTESIAN_POINT('Origin',(3.35776545337204E-16,10.,0.));
#224=CARTESIAN_POINT('',(-6.5,10.,-7.9602041944578E-16));
#225=CARTESIAN_POINT('Origin',(0.,10.,0.));
#226=CARTESIAN_POINT('Origin',(0.,9.75,0.));
#227=CARTESIAN_POINT('',(-6.75,9.75,8.26636589424463E-16));
#228=UNCERTAINTY_MEASURE_WITH_UNIT(LENGTH_MEASURE(0.01),#232,
'DISTANCE_ACCURACY_VALUE',
'Maximum model space distance between geometric entities at asserted c
onnectivities');
#229=UNCERTAINTY_MEASURE_WITH_UNIT(LENGTH_MEASURE(0.01),#232,
'DISTANCE_ACCURACY_VALUE',
'Maximum model space distance between geometric entities at asserted c
onnectivities');
#230=(
GEOMETRIC_REPRESENTATION_CONTEXT(3)
GLOBAL_UNCERTAINTY_ASSIGNED_CONTEXT((#228))
GLOBAL_UNIT_ASSIGNED_CONTEXT((#232,#234,#235))
REPRESENTATION_CONTEXT('','3D')
);
#231=(
GEOMETRIC_REPRESENTATION_CONTEXT(3)
GLOBAL_UNCERTAINTY_ASSIGNED_CONTEXT((#229))
GLOBAL_UNIT_ASSIGNED_CONTEXT((#232,#234,#235))
REPRESENTATION_CONTEXT('','3D')
);
#232=(
LENGTH_UNIT()
NAMED_UNIT(*)
SI_UNIT(.MILLI.,.METRE.)
);
#233=(
LENGTH_UNIT()
NAMED_UNIT(*)
SI_UNIT(.CENTI.,.METRE.)
);
#234=(
NAMED_UNIT(*)
PLANE_ANGLE_UNIT()
SI_UNIT($,.RADIAN.)
);
#235=(
NAMED_UNIT(*)
SI_UNIT($,.STERADIAN.)
SOLID_ANGLE_UNIT()
);
#236=SHAPE_DEFINITION_REPRESENTATION(#237,#238);
#237=PRODUCT_DEFINITION_SHAPE('',$,#240);
#238=SHAPE_REPRESENTATION('',(#140),#230);
#239=PRODUCT_DEFINITION_CONTEXT('part definition',#244,'design');
#240=PRODUCT_DEFINITION('B51-14-10','B51-14-10',#241,#239);
#241=PRODUCT_DEFINITION_FORMATION('A00',$,#246);
#242=PRODUCT_RELATED_PRODUCT_CATEGORY('B51-14-10','B51-14-10',(#246));
#243=APPLICATION_PROTOCOL_DEFINITION('international standard',
'automotive_design',2009,#244);
#244=APPLICATION_CONTEXT(
'Core Data for Automotive Mechanical Design Process');
#245=PRODUCT_CONTEXT('part definition',#244,'mechanical');
#246=PRODUCT('B51-14-10','B51-14-10',
'Boccola di riduzione M14-M10 lungh. 20 mm',(#245));
#247=PRESENTATION_STYLE_ASSIGNMENT((#248));
#248=SURFACE_STYLE_USAGE(.BOTH.,#251);
#249=SURFACE_STYLE_RENDERING_WITH_PROPERTIES($,#255,(#250));
#250=SURFACE_STYLE_TRANSPARENT(0.);
#251=SURFACE_SIDE_STYLE('',(#252,#249));
#252=SURFACE_STYLE_FILL_AREA(#253);
#253=FILL_AREA_STYLE('',(#254));
#254=FILL_AREA_STYLE_COLOUR('',#255);
#255=COLOUR_RGB('',0.647058823529412,0.67843137254902,0.694117647058824);
ENDSEC;
END-ISO-10303-21;
