ISO-10303-21;
HEADER;
/* Generated by software containing ST-Developer
 * from STEP Tools, Inc. (www.steptools.com) 
 */

FILE_DESCRIPTION(
/* description */ ('Boccola di riduzione M12-M8 lungh. 20 mm'),
/* implementation_level */ '2;1');

FILE_NAME(
/* name */ 'C:\\Users\\marco.dallariva\\Desktop\\B51-12-08.stp',
/* time_stamp */ '2023-07-10T07:24:33+02:00',
/* author */ ('maritza.dallavecchia'),
/* organization */ (''),
/* preprocessor_version */ 'ST-DEVELOPER v18.1',
/* originating_system */ 'Autodesk Inventor 2021',
/* authorisation */ '');

FILE_SCHEMA (('AUTOMOTIVE_DESIGN { 1 0 10303 214 3 1 1 }'));
ENDSEC;

DATA;
#10=MECHANICAL_DESIGN_GEOMETRIC_PRESENTATION_REPRESENTATION('',(#13),#589);
#11=SHAPE_REPRESENTATION_RELATIONSHIP('SRR','None',#596,#12);
#12=ADVANCED_BREP_SHAPE_REPRESENTATION('',(#14),#588);
#13=STYLED_ITEM('',(#605),#14);
#14=MANIFOLD_SOLID_BREP('Solido1',#324);
#15=(
BOUNDED_CURVE()
B_SPLINE_CURVE(2,(#532,#533,#534),.UNSPECIFIED.,.F.,.F.)
B_SPLINE_CURVE_WITH_KNOTS((3,3),(0.322934277526939,0.366912823381152),
 .UNSPECIFIED.)
CURVE()
GEOMETRIC_REPRESENTATION_ITEM()
RATIONAL_B_SPLINE_CURVE((1.0362998780992,1.02062167395757,1.))
REPRESENTATION_ITEM('')
);
#16=(
BOUNDED_CURVE()
B_SPLINE_CURVE(2,(#537,#538,#539),.UNSPECIFIED.,.F.,.F.)
B_SPLINE_CURVE_WITH_KNOTS((3,3),(0.,0.0439785458542133),.UNSPECIFIED.)
CURVE()
GEOMETRIC_REPRESENTATION_ITEM()
RATIONAL_B_SPLINE_CURVE((1.,1.02062167395757,1.0362998780992))
REPRESENTATION_ITEM('')
);
#17=(
BOUNDED_CURVE()
B_SPLINE_CURVE(2,(#543,#544,#545),.UNSPECIFIED.,.F.,.F.)
B_SPLINE_CURVE_WITH_KNOTS((3,3),(0.272462556408202,0.35485639470442),
 .UNSPECIFIED.)
CURVE()
GEOMETRIC_REPRESENTATION_ITEM()
RATIONAL_B_SPLINE_CURVE((1.00637082280088,1.00414869338419,1.))
REPRESENTATION_ITEM('')
);
#18=(
BOUNDED_CURVE()
B_SPLINE_CURVE(2,(#553,#554,#555),.UNSPECIFIED.,.F.,.F.)
B_SPLINE_CURVE_WITH_KNOTS((3,3),(0.322934277526937,0.366912823381152),
 .UNSPECIFIED.)
CURVE()
GEOMETRIC_REPRESENTATION_ITEM()
RATIONAL_B_SPLINE_CURVE((1.03629987809919,1.02062167395757,1.))
REPRESENTATION_ITEM('')
);
#19=(
BOUNDED_CURVE()
B_SPLINE_CURVE(2,(#558,#559,#560),.UNSPECIFIED.,.F.,.F.)
B_SPLINE_CURVE_WITH_KNOTS((3,3),(0.,0.0439785458542149),.UNSPECIFIED.)
CURVE()
GEOMETRIC_REPRESENTATION_ITEM()
RATIONAL_B_SPLINE_CURVE((1.,1.02062167395757,1.03629987809919))
REPRESENTATION_ITEM('')
);
#20=(
BOUNDED_CURVE()
B_SPLINE_CURVE(2,(#564,#565,#566),.UNSPECIFIED.,.F.,.F.)
B_SPLINE_CURVE_WITH_KNOTS((3,3),(0.272462556409054,0.35485639470442),
 .UNSPECIFIED.)
CURVE()
GEOMETRIC_REPRESENTATION_ITEM()
RATIONAL_B_SPLINE_CURVE((1.00637082279875,1.00414869338279,1.))
REPRESENTATION_ITEM('')
);
#21=(
BOUNDED_CURVE()
B_SPLINE_CURVE(2,(#571,#572,#573),.UNSPECIFIED.,.F.,.F.)
B_SPLINE_CURVE_WITH_KNOTS((3,3),(0.,0.0823938382937182),.UNSPECIFIED.)
CURVE()
GEOMETRIC_REPRESENTATION_ITEM()
RATIONAL_B_SPLINE_CURVE((1.,1.00414869338271,1.00637082279866))
REPRESENTATION_ITEM('')
);
#22=(
BOUNDED_CURVE()
B_SPLINE_CURVE(2,(#578,#579,#580),.UNSPECIFIED.,.F.,.F.)
B_SPLINE_CURVE_WITH_KNOTS((3,3),(0.,0.0823938382945697),.UNSPECIFIED.)
CURVE()
GEOMETRIC_REPRESENTATION_ITEM()
RATIONAL_B_SPLINE_CURVE((1.,1.00414869338411,1.00637082280079))
REPRESENTATION_ITEM('')
);
#23=CYLINDRICAL_SURFACE('',#350,6.);
#24=CYLINDRICAL_SURFACE('',#358,3.3235);
#25=FACE_BOUND('',#54,.T.);
#26=PLANE('',#348);
#27=PLANE('',#366);
#28=PLANE('',#367);
#29=PLANE('',#371);
#30=PLANE('',#374);
#31=PLANE('',#376);
#32=PLANE('',#377);
#33=PLANE('',#378);
#34=PLANE('',#379);
#35=FACE_OUTER_BOUND('',#52,.T.);
#36=FACE_OUTER_BOUND('',#53,.T.);
#37=FACE_OUTER_BOUND('',#55,.T.);
#38=FACE_OUTER_BOUND('',#56,.T.);
#39=FACE_OUTER_BOUND('',#57,.T.);
#40=FACE_OUTER_BOUND('',#58,.T.);
#41=FACE_OUTER_BOUND('',#59,.T.);
#42=FACE_OUTER_BOUND('',#60,.T.);
#43=FACE_OUTER_BOUND('',#61,.T.);
#44=FACE_OUTER_BOUND('',#62,.T.);
#45=FACE_OUTER_BOUND('',#63,.T.);
#46=FACE_OUTER_BOUND('',#64,.T.);
#47=FACE_OUTER_BOUND('',#65,.T.);
#48=FACE_OUTER_BOUND('',#66,.T.);
#49=FACE_OUTER_BOUND('',#67,.T.);
#50=FACE_OUTER_BOUND('',#68,.T.);
#51=FACE_OUTER_BOUND('',#69,.T.);
#52=EDGE_LOOP('',(#207,#208,#209,#210,#211));
#53=EDGE_LOOP('',(#212));
#54=EDGE_LOOP('',(#213));
#55=EDGE_LOOP('',(#214,#215,#216,#217,#218,#219,#220,#221,#222,#223,#224,
#225,#226));
#56=EDGE_LOOP('',(#227,#228,#229,#230));
#57=EDGE_LOOP('',(#231,#232,#233,#234,#235,#236,#237,#238,#239,#240,#241,
#242));
#58=EDGE_LOOP('',(#243,#244,#245,#246));
#59=EDGE_LOOP('',(#247,#248,#249,#250,#251,#252));
#60=EDGE_LOOP('',(#253,#254,#255,#256));
#61=EDGE_LOOP('',(#257,#258,#259,#260,#261));
#62=EDGE_LOOP('',(#262,#263,#264,#265,#266,#267));
#63=EDGE_LOOP('',(#268,#269,#270,#271,#272));
#64=EDGE_LOOP('',(#273,#274,#275,#276,#277,#278));
#65=EDGE_LOOP('',(#279,#280,#281,#282));
#66=EDGE_LOOP('',(#283,#284,#285,#286,#287,#288));
#67=EDGE_LOOP('',(#289,#290,#291,#292));
#68=EDGE_LOOP('',(#293,#294,#295,#296));
#69=EDGE_LOOP('',(#297,#298,#299,#300));
#70=LINE('',#479,#90);
#71=LINE('',#491,#91);
#72=LINE('',#495,#92);
#73=LINE('',#499,#93);
#74=LINE('',#503,#94);
#75=LINE('',#505,#95);
#76=LINE('',#508,#96);
#77=LINE('',#515,#97);
#78=LINE('',#519,#98);
#79=LINE('',#522,#99);
#80=LINE('',#526,#100);
#81=LINE('',#529,#101);
#82=LINE('',#542,#102);
#83=LINE('',#546,#103);
#84=LINE('',#549,#104);
#85=LINE('',#563,#105);
#86=LINE('',#567,#106);
#87=LINE('',#575,#107);
#88=LINE('',#576,#108);
#89=LINE('',#582,#109);
#90=VECTOR('',#386,5.75);
#91=VECTOR('',#399,10.);
#92=VECTOR('',#402,10.);
#93=VECTOR('',#405,10.);
#94=VECTOR('',#408,10.);
#95=VECTOR('',#411,6.);
#96=VECTOR('',#414,3.5735);
#97=VECTOR('',#421,10.);
#98=VECTOR('',#424,10.);
#99=VECTOR('',#427,3.3235);
#100=VECTOR('',#430,10.);
#101=VECTOR('',#433,10.);
#102=VECTOR('',#440,10.);
#103=VECTOR('',#441,10.);
#104=VECTOR('',#444,10.);
#105=VECTOR('',#453,10.);
#106=VECTOR('',#454,10.);
#107=VECTOR('',#461,10.);
#108=VECTOR('',#462,10.);
#109=VECTOR('',#467,10.);
#110=CIRCLE('',#345,5.5);
#111=CIRCLE('',#346,6.);
#112=CIRCLE('',#347,6.);
#113=CIRCLE('',#349,3.8235);
#114=CIRCLE('',#351,6.);
#115=CIRCLE('',#352,6.);
#116=CIRCLE('',#353,6.);
#117=CIRCLE('',#354,6.);
#118=CIRCLE('',#355,6.);
#119=CIRCLE('',#357,3.3235);
#120=CIRCLE('',#359,3.3235);
#121=CIRCLE('',#360,3.3235);
#122=CIRCLE('',#361,3.3235);
#123=CIRCLE('',#362,3.3235);
#124=CIRCLE('',#363,3.3235);
#125=CIRCLE('',#365,3.8235);
#126=CIRCLE('',#368,5.5);
#127=CIRCLE('',#370,3.8235);
#128=CIRCLE('',#373,5.5);
#129=VERTEX_POINT('',#476);
#130=VERTEX_POINT('',#478);
#131=VERTEX_POINT('',#480);
#132=VERTEX_POINT('',#484);
#133=VERTEX_POINT('',#487);
#134=VERTEX_POINT('',#488);
#135=VERTEX_POINT('',#490);
#136=VERTEX_POINT('',#492);
#137=VERTEX_POINT('',#494);
#138=VERTEX_POINT('',#496);
#139=VERTEX_POINT('',#498);
#140=VERTEX_POINT('',#500);
#141=VERTEX_POINT('',#502);
#142=VERTEX_POINT('',#507);
#143=VERTEX_POINT('',#511);
#144=VERTEX_POINT('',#512);
#145=VERTEX_POINT('',#514);
#146=VERTEX_POINT('',#516);
#147=VERTEX_POINT('',#518);
#148=VERTEX_POINT('',#520);
#149=VERTEX_POINT('',#523);
#150=VERTEX_POINT('',#525);
#151=VERTEX_POINT('',#527);
#152=VERTEX_POINT('',#531);
#153=VERTEX_POINT('',#535);
#154=VERTEX_POINT('',#541);
#155=VERTEX_POINT('',#548);
#156=VERTEX_POINT('',#552);
#157=VERTEX_POINT('',#556);
#158=VERTEX_POINT('',#562);
#159=VERTEX_POINT('',#569);
#160=EDGE_CURVE('',#129,#129,#110,.T.);
#161=EDGE_CURVE('',#129,#130,#70,.T.);
#162=EDGE_CURVE('',#130,#131,#111,.T.);
#163=EDGE_CURVE('',#131,#130,#112,.T.);
#164=EDGE_CURVE('',#132,#132,#113,.T.);
#165=EDGE_CURVE('',#133,#134,#114,.T.);
#166=EDGE_CURVE('',#133,#135,#71,.T.);
#167=EDGE_CURVE('',#135,#136,#115,.T.);
#168=EDGE_CURVE('',#136,#137,#72,.T.);
#169=EDGE_CURVE('',#138,#137,#116,.T.);
#170=EDGE_CURVE('',#138,#139,#73,.T.);
#171=EDGE_CURVE('',#139,#140,#117,.T.);
#172=EDGE_CURVE('',#140,#141,#74,.T.);
#173=EDGE_CURVE('',#134,#141,#118,.T.);
#174=EDGE_CURVE('',#134,#131,#75,.T.);
#175=EDGE_CURVE('',#132,#142,#76,.T.);
#176=EDGE_CURVE('',#142,#142,#119,.T.);
#177=EDGE_CURVE('',#143,#144,#120,.T.);
#178=EDGE_CURVE('',#143,#145,#77,.T.);
#179=EDGE_CURVE('',#145,#146,#121,.T.);
#180=EDGE_CURVE('',#146,#147,#78,.T.);
#181=EDGE_CURVE('',#148,#147,#122,.T.);
#182=EDGE_CURVE('',#148,#142,#79,.T.);
#183=EDGE_CURVE('',#149,#148,#123,.T.);
#184=EDGE_CURVE('',#149,#150,#80,.T.);
#185=EDGE_CURVE('',#150,#151,#124,.T.);
#186=EDGE_CURVE('',#151,#144,#81,.T.);
#187=EDGE_CURVE('',#144,#152,#15,.T.);
#188=EDGE_CURVE('',#152,#153,#125,.T.);
#189=EDGE_CURVE('',#153,#143,#16,.T.);
#190=EDGE_CURVE('',#154,#153,#82,.T.);
#191=EDGE_CURVE('',#137,#154,#17,.T.);
#192=EDGE_CURVE('',#145,#136,#83,.T.);
#193=EDGE_CURVE('',#152,#155,#84,.T.);
#194=EDGE_CURVE('',#154,#155,#126,.T.);
#195=EDGE_CURVE('',#147,#156,#18,.T.);
#196=EDGE_CURVE('',#156,#157,#127,.T.);
#197=EDGE_CURVE('',#157,#149,#19,.T.);
#198=EDGE_CURVE('',#158,#157,#85,.T.);
#199=EDGE_CURVE('',#141,#158,#20,.T.);
#200=EDGE_CURVE('',#150,#140,#86,.T.);
#201=EDGE_CURVE('',#158,#159,#128,.T.);
#202=EDGE_CURVE('',#159,#133,#21,.T.);
#203=EDGE_CURVE('',#135,#146,#87,.T.);
#204=EDGE_CURVE('',#156,#159,#88,.T.);
#205=EDGE_CURVE('',#155,#138,#22,.T.);
#206=EDGE_CURVE('',#139,#151,#89,.T.);
#207=ORIENTED_EDGE('',*,*,#160,.T.);
#208=ORIENTED_EDGE('',*,*,#161,.T.);
#209=ORIENTED_EDGE('',*,*,#162,.T.);
#210=ORIENTED_EDGE('',*,*,#163,.T.);
#211=ORIENTED_EDGE('',*,*,#161,.F.);
#212=ORIENTED_EDGE('',*,*,#160,.F.);
#213=ORIENTED_EDGE('',*,*,#164,.F.);
#214=ORIENTED_EDGE('',*,*,#165,.F.);
#215=ORIENTED_EDGE('',*,*,#166,.T.);
#216=ORIENTED_EDGE('',*,*,#167,.T.);
#217=ORIENTED_EDGE('',*,*,#168,.T.);
#218=ORIENTED_EDGE('',*,*,#169,.F.);
#219=ORIENTED_EDGE('',*,*,#170,.T.);
#220=ORIENTED_EDGE('',*,*,#171,.T.);
#221=ORIENTED_EDGE('',*,*,#172,.T.);
#222=ORIENTED_EDGE('',*,*,#173,.F.);
#223=ORIENTED_EDGE('',*,*,#174,.T.);
#224=ORIENTED_EDGE('',*,*,#162,.F.);
#225=ORIENTED_EDGE('',*,*,#163,.F.);
#226=ORIENTED_EDGE('',*,*,#174,.F.);
#227=ORIENTED_EDGE('',*,*,#164,.T.);
#228=ORIENTED_EDGE('',*,*,#175,.T.);
#229=ORIENTED_EDGE('',*,*,#176,.T.);
#230=ORIENTED_EDGE('',*,*,#175,.F.);
#231=ORIENTED_EDGE('',*,*,#177,.F.);
#232=ORIENTED_EDGE('',*,*,#178,.T.);
#233=ORIENTED_EDGE('',*,*,#179,.T.);
#234=ORIENTED_EDGE('',*,*,#180,.T.);
#235=ORIENTED_EDGE('',*,*,#181,.F.);
#236=ORIENTED_EDGE('',*,*,#182,.T.);
#237=ORIENTED_EDGE('',*,*,#176,.F.);
#238=ORIENTED_EDGE('',*,*,#182,.F.);
#239=ORIENTED_EDGE('',*,*,#183,.F.);
#240=ORIENTED_EDGE('',*,*,#184,.T.);
#241=ORIENTED_EDGE('',*,*,#185,.T.);
#242=ORIENTED_EDGE('',*,*,#186,.T.);
#243=ORIENTED_EDGE('',*,*,#187,.T.);
#244=ORIENTED_EDGE('',*,*,#188,.T.);
#245=ORIENTED_EDGE('',*,*,#189,.T.);
#246=ORIENTED_EDGE('',*,*,#177,.T.);
#247=ORIENTED_EDGE('',*,*,#189,.F.);
#248=ORIENTED_EDGE('',*,*,#190,.F.);
#249=ORIENTED_EDGE('',*,*,#191,.F.);
#250=ORIENTED_EDGE('',*,*,#168,.F.);
#251=ORIENTED_EDGE('',*,*,#192,.F.);
#252=ORIENTED_EDGE('',*,*,#178,.F.);
#253=ORIENTED_EDGE('',*,*,#188,.F.);
#254=ORIENTED_EDGE('',*,*,#193,.T.);
#255=ORIENTED_EDGE('',*,*,#194,.F.);
#256=ORIENTED_EDGE('',*,*,#190,.T.);
#257=ORIENTED_EDGE('',*,*,#195,.T.);
#258=ORIENTED_EDGE('',*,*,#196,.T.);
#259=ORIENTED_EDGE('',*,*,#197,.T.);
#260=ORIENTED_EDGE('',*,*,#183,.T.);
#261=ORIENTED_EDGE('',*,*,#181,.T.);
#262=ORIENTED_EDGE('',*,*,#197,.F.);
#263=ORIENTED_EDGE('',*,*,#198,.F.);
#264=ORIENTED_EDGE('',*,*,#199,.F.);
#265=ORIENTED_EDGE('',*,*,#172,.F.);
#266=ORIENTED_EDGE('',*,*,#200,.F.);
#267=ORIENTED_EDGE('',*,*,#184,.F.);
#268=ORIENTED_EDGE('',*,*,#199,.T.);
#269=ORIENTED_EDGE('',*,*,#201,.T.);
#270=ORIENTED_EDGE('',*,*,#202,.T.);
#271=ORIENTED_EDGE('',*,*,#165,.T.);
#272=ORIENTED_EDGE('',*,*,#173,.T.);
#273=ORIENTED_EDGE('',*,*,#195,.F.);
#274=ORIENTED_EDGE('',*,*,#180,.F.);
#275=ORIENTED_EDGE('',*,*,#203,.F.);
#276=ORIENTED_EDGE('',*,*,#166,.F.);
#277=ORIENTED_EDGE('',*,*,#202,.F.);
#278=ORIENTED_EDGE('',*,*,#204,.F.);
#279=ORIENTED_EDGE('',*,*,#191,.T.);
#280=ORIENTED_EDGE('',*,*,#194,.T.);
#281=ORIENTED_EDGE('',*,*,#205,.T.);
#282=ORIENTED_EDGE('',*,*,#169,.T.);
#283=ORIENTED_EDGE('',*,*,#187,.F.);
#284=ORIENTED_EDGE('',*,*,#186,.F.);
#285=ORIENTED_EDGE('',*,*,#206,.F.);
#286=ORIENTED_EDGE('',*,*,#170,.F.);
#287=ORIENTED_EDGE('',*,*,#205,.F.);
#288=ORIENTED_EDGE('',*,*,#193,.F.);
#289=ORIENTED_EDGE('',*,*,#185,.F.);
#290=ORIENTED_EDGE('',*,*,#200,.T.);
#291=ORIENTED_EDGE('',*,*,#171,.F.);
#292=ORIENTED_EDGE('',*,*,#206,.T.);
#293=ORIENTED_EDGE('',*,*,#179,.F.);
#294=ORIENTED_EDGE('',*,*,#192,.T.);
#295=ORIENTED_EDGE('',*,*,#167,.F.);
#296=ORIENTED_EDGE('',*,*,#203,.T.);
#297=ORIENTED_EDGE('',*,*,#196,.F.);
#298=ORIENTED_EDGE('',*,*,#204,.T.);
#299=ORIENTED_EDGE('',*,*,#201,.F.);
#300=ORIENTED_EDGE('',*,*,#198,.T.);
#301=CONICAL_SURFACE('',#344,5.75,0.785398163397448);
#302=CONICAL_SURFACE('',#356,3.5735,0.785398163397448);
#303=CONICAL_SURFACE('',#364,3.5735,0.785398163397446);
#304=CONICAL_SURFACE('',#369,3.5735,0.785398163397446);
#305=CONICAL_SURFACE('',#372,5.75,0.785398163397448);
#306=CONICAL_SURFACE('',#375,5.75,0.785398163397448);
#307=ADVANCED_FACE('',(#35),#301,.T.);
#308=ADVANCED_FACE('',(#36,#25),#26,.F.);
#309=ADVANCED_FACE('',(#37),#23,.T.);
#310=ADVANCED_FACE('',(#38),#302,.F.);
#311=ADVANCED_FACE('',(#39),#24,.F.);
#312=ADVANCED_FACE('',(#40),#303,.F.);
#313=ADVANCED_FACE('',(#41),#27,.F.);
#314=ADVANCED_FACE('',(#42),#28,.T.);
#315=ADVANCED_FACE('',(#43),#304,.F.);
#316=ADVANCED_FACE('',(#44),#29,.F.);
#317=ADVANCED_FACE('',(#45),#305,.T.);
#318=ADVANCED_FACE('',(#46),#30,.F.);
#319=ADVANCED_FACE('',(#47),#306,.T.);
#320=ADVANCED_FACE('',(#48),#31,.F.);
#321=ADVANCED_FACE('',(#49),#32,.F.);
#322=ADVANCED_FACE('',(#50),#33,.F.);
#323=ADVANCED_FACE('',(#51),#34,.T.);
#324=CLOSED_SHELL('',(#307,#308,#309,#310,#311,#312,#313,#314,#315,#316,
#317,#318,#319,#320,#321,#322,#323));
#325=DERIVED_UNIT_ELEMENT(#327,1.);
#326=DERIVED_UNIT_ELEMENT(#591,-3.);
#327=(
MASS_UNIT()
NAMED_UNIT(*)
SI_UNIT($,.GRAM.)
);
#328=DERIVED_UNIT((#325,#326));
#329=MEASURE_REPRESENTATION_ITEM('density measure',
POSITIVE_RATIO_MEASURE(7.85),#328);
#330=PROPERTY_DEFINITION_REPRESENTATION(#335,#332);
#331=PROPERTY_DEFINITION_REPRESENTATION(#336,#333);
#332=REPRESENTATION('material name',(#334),#588);
#333=REPRESENTATION('density',(#329),#588);
#334=DESCRIPTIVE_REPRESENTATION_ITEM('Acciaio, Carbonio',
'Acciaio, Carbonio');
#335=PROPERTY_DEFINITION('material property','material name',#598);
#336=PROPERTY_DEFINITION('material property','density of part',#598);
#337=DATE_TIME_ROLE('creation_date');
#338=APPLIED_DATE_AND_TIME_ASSIGNMENT(#339,#337,(#598));
#339=DATE_AND_TIME(#340,#341);
#340=CALENDAR_DATE(2023,29,5);
#341=LOCAL_TIME(0,0,0.,#342);
#342=COORDINATED_UNIVERSAL_TIME_OFFSET(0,0,.BEHIND.);
#343=AXIS2_PLACEMENT_3D('placement',#474,#380,#381);
#344=AXIS2_PLACEMENT_3D('',#475,#382,#383);
#345=AXIS2_PLACEMENT_3D('',#477,#384,#385);
#346=AXIS2_PLACEMENT_3D('',#481,#387,#388);
#347=AXIS2_PLACEMENT_3D('',#482,#389,#390);
#348=AXIS2_PLACEMENT_3D('',#483,#391,#392);
#349=AXIS2_PLACEMENT_3D('',#485,#393,#394);
#350=AXIS2_PLACEMENT_3D('',#486,#395,#396);
#351=AXIS2_PLACEMENT_3D('',#489,#397,#398);
#352=AXIS2_PLACEMENT_3D('',#493,#400,#401);
#353=AXIS2_PLACEMENT_3D('',#497,#403,#404);
#354=AXIS2_PLACEMENT_3D('',#501,#406,#407);
#355=AXIS2_PLACEMENT_3D('',#504,#409,#410);
#356=AXIS2_PLACEMENT_3D('',#506,#412,#413);
#357=AXIS2_PLACEMENT_3D('',#509,#415,#416);
#358=AXIS2_PLACEMENT_3D('',#510,#417,#418);
#359=AXIS2_PLACEMENT_3D('',#513,#419,#420);
#360=AXIS2_PLACEMENT_3D('',#517,#422,#423);
#361=AXIS2_PLACEMENT_3D('',#521,#425,#426);
#362=AXIS2_PLACEMENT_3D('',#524,#428,#429);
#363=AXIS2_PLACEMENT_3D('',#528,#431,#432);
#364=AXIS2_PLACEMENT_3D('',#530,#434,#435);
#365=AXIS2_PLACEMENT_3D('',#536,#436,#437);
#366=AXIS2_PLACEMENT_3D('',#540,#438,#439);
#367=AXIS2_PLACEMENT_3D('',#547,#442,#443);
#368=AXIS2_PLACEMENT_3D('',#550,#445,#446);
#369=AXIS2_PLACEMENT_3D('',#551,#447,#448);
#370=AXIS2_PLACEMENT_3D('',#557,#449,#450);
#371=AXIS2_PLACEMENT_3D('',#561,#451,#452);
#372=AXIS2_PLACEMENT_3D('',#568,#455,#456);
#373=AXIS2_PLACEMENT_3D('',#570,#457,#458);
#374=AXIS2_PLACEMENT_3D('',#574,#459,#460);
#375=AXIS2_PLACEMENT_3D('',#577,#463,#464);
#376=AXIS2_PLACEMENT_3D('',#581,#465,#466);
#377=AXIS2_PLACEMENT_3D('',#583,#468,#469);
#378=AXIS2_PLACEMENT_3D('',#584,#470,#471);
#379=AXIS2_PLACEMENT_3D('',#585,#472,#473);
#380=DIRECTION('axis',(0.,0.,1.));
#381=DIRECTION('refdir',(1.,0.,0.));
#382=DIRECTION('center_axis',(0.,0.,1.));
#383=DIRECTION('ref_axis',(-1.,0.,0.));
#384=DIRECTION('center_axis',(0.,0.,1.));
#385=DIRECTION('ref_axis',(-1.,0.,0.));
#386=DIRECTION('',(0.707106781186548,-8.65956056235493E-17,0.707106781186548));
#387=DIRECTION('center_axis',(0.,0.,-1.));
#388=DIRECTION('ref_axis',(-1.,0.,0.));
#389=DIRECTION('center_axis',(0.,0.,-1.));
#390=DIRECTION('ref_axis',(-1.,0.,0.));
#391=DIRECTION('center_axis',(0.,0.,1.));
#392=DIRECTION('ref_axis',(1.,0.,0.));
#393=DIRECTION('center_axis',(0.,0.,-1.));
#394=DIRECTION('ref_axis',(1.,0.,0.));
#395=DIRECTION('center_axis',(0.,0.,1.));
#396=DIRECTION('ref_axis',(1.,0.,0.));
#397=DIRECTION('center_axis',(0.,0.,1.));
#398=DIRECTION('ref_axis',(-1.,0.,0.));
#399=DIRECTION('',(0.,0.,-1.));
#400=DIRECTION('center_axis',(0.,0.,-1.));
#401=DIRECTION('ref_axis',(1.,0.,0.));
#402=DIRECTION('',(0.,0.,1.));
#403=DIRECTION('center_axis',(0.,0.,1.));
#404=DIRECTION('ref_axis',(1.,0.,0.));
#405=DIRECTION('',(0.,0.,-1.));
#406=DIRECTION('center_axis',(0.,0.,-1.));
#407=DIRECTION('ref_axis',(1.,0.,0.));
#408=DIRECTION('',(0.,0.,1.));
#409=DIRECTION('center_axis',(0.,0.,1.));
#410=DIRECTION('ref_axis',(-1.,0.,0.));
#411=DIRECTION('',(0.,0.,-1.));
#412=DIRECTION('center_axis',(0.,0.,-1.));
#413=DIRECTION('ref_axis',(1.,0.,0.));
#414=DIRECTION('',(0.707106781186547,-8.65956056235493E-17,0.707106781186548));
#415=DIRECTION('center_axis',(0.,0.,1.));
#416=DIRECTION('ref_axis',(1.,0.,0.));
#417=DIRECTION('center_axis',(0.,0.,1.));
#418=DIRECTION('ref_axis',(1.,0.,0.));
#419=DIRECTION('center_axis',(0.,0.,-1.));
#420=DIRECTION('ref_axis',(1.,0.,0.));
#421=DIRECTION('',(0.,0.,-1.));
#422=DIRECTION('center_axis',(0.,0.,1.));
#423=DIRECTION('ref_axis',(1.,0.,0.));
#424=DIRECTION('',(0.,0.,1.));
#425=DIRECTION('center_axis',(0.,0.,-1.));
#426=DIRECTION('ref_axis',(-1.,0.,0.));
#427=DIRECTION('',(0.,0.,-1.));
#428=DIRECTION('center_axis',(0.,0.,-1.));
#429=DIRECTION('ref_axis',(-1.,0.,0.));
#430=DIRECTION('',(0.,0.,-1.));
#431=DIRECTION('center_axis',(0.,0.,1.));
#432=DIRECTION('ref_axis',(1.,0.,0.));
#433=DIRECTION('',(0.,0.,1.));
#434=DIRECTION('center_axis',(0.,0.,1.));
#435=DIRECTION('ref_axis',(1.,0.,0.));
#436=DIRECTION('center_axis',(0.,0.,1.));
#437=DIRECTION('ref_axis',(1.,0.,0.));
#438=DIRECTION('center_axis',(1.,0.,-6.10622663543836E-16));
#439=DIRECTION('ref_axis',(-6.10622663543836E-16,0.,-1.));
#440=DIRECTION('',(0.,-1.,0.));
#441=DIRECTION('',(0.,1.,0.));
#442=DIRECTION('center_axis',(0.,0.,1.));
#443=DIRECTION('ref_axis',(1.,0.,0.));
#444=DIRECTION('',(0.,-1.,0.));
#445=DIRECTION('center_axis',(0.,0.,-1.));
#446=DIRECTION('ref_axis',(1.,0.,0.));
#447=DIRECTION('center_axis',(0.,0.,1.));
#448=DIRECTION('ref_axis',(-1.,0.,0.));
#449=DIRECTION('center_axis',(0.,0.,1.));
#450=DIRECTION('ref_axis',(-1.,0.,0.));
#451=DIRECTION('center_axis',(-1.,0.,-1.66533453693773E-16));
#452=DIRECTION('ref_axis',(-1.66533453693773E-16,0.,1.));
#453=DIRECTION('',(0.,1.,0.));
#454=DIRECTION('',(0.,-1.,0.));
#455=DIRECTION('center_axis',(0.,0.,-1.));
#456=DIRECTION('ref_axis',(-1.,0.,0.));
#457=DIRECTION('center_axis',(0.,0.,-1.));
#458=DIRECTION('ref_axis',(-1.,0.,0.));
#459=DIRECTION('center_axis',(-1.,0.,-1.66533453693773E-16));
#460=DIRECTION('ref_axis',(-1.66533453693773E-16,0.,1.));
#461=DIRECTION('',(0.,-1.,0.));
#462=DIRECTION('',(0.,1.,0.));
#463=DIRECTION('center_axis',(0.,0.,-1.));
#464=DIRECTION('ref_axis',(1.,0.,0.));
#465=DIRECTION('center_axis',(1.,0.,-6.10622663543836E-16));
#466=DIRECTION('ref_axis',(-6.10622663543836E-16,0.,-1.));
#467=DIRECTION('',(0.,1.,0.));
#468=DIRECTION('center_axis',(0.,0.,-1.));
#469=DIRECTION('ref_axis',(-1.,0.,0.));
#470=DIRECTION('center_axis',(0.,0.,-1.));
#471=DIRECTION('ref_axis',(-1.,0.,0.));
#472=DIRECTION('center_axis',(0.,0.,1.));
#473=DIRECTION('ref_axis',(1.,0.,0.));
#474=CARTESIAN_POINT('',(0.,0.,0.));
#475=CARTESIAN_POINT('Origin',(0.,0.,-10.));
#476=CARTESIAN_POINT('',(5.5,6.73555739531044E-16,-10.25));
#477=CARTESIAN_POINT('Origin',(0.,0.,-10.25));
#478=CARTESIAN_POINT('',(6.,-7.34788079488412E-16,-9.75));
#479=CARTESIAN_POINT('',(5.75,-7.04171909509728E-16,-10.));
#480=CARTESIAN_POINT('',(-6.,-7.34788079488412E-16,-9.75));
#481=CARTESIAN_POINT('Origin',(0.,0.,-9.75));
#482=CARTESIAN_POINT('Origin',(0.,0.,-9.75));
#483=CARTESIAN_POINT('Origin',(0.,0.,-10.25));
#484=CARTESIAN_POINT('',(-3.8235,4.68243703653991E-16,-10.25));
#485=CARTESIAN_POINT('Origin',(0.,0.,-10.25));
#486=CARTESIAN_POINT('Origin',(0.,0.,0.));
#487=CARTESIAN_POINT('',(-0.799999999999999,5.9464274989274,9.75));
#488=CARTESIAN_POINT('',(-6.,-7.34788079488412E-16,9.75));
#489=CARTESIAN_POINT('Origin',(0.,0.,9.75));
#490=CARTESIAN_POINT('',(-0.800000000000001,5.9464274989274,7.75));
#491=CARTESIAN_POINT('',(-0.799999999999999,5.9464274989274,0.));
#492=CARTESIAN_POINT('',(0.8,5.9464274989274,7.75));
#493=CARTESIAN_POINT('Origin',(0.,0.,7.75));
#494=CARTESIAN_POINT('',(0.799999999999995,5.9464274989274,9.75));
#495=CARTESIAN_POINT('',(0.799999999999995,5.9464274989274,0.));
#496=CARTESIAN_POINT('',(0.799999999999995,-5.9464274989274,9.75));
#497=CARTESIAN_POINT('Origin',(0.,0.,9.75));
#498=CARTESIAN_POINT('',(0.8,-5.9464274989274,7.75));
#499=CARTESIAN_POINT('',(0.799999999999995,-5.9464274989274,0.));
#500=CARTESIAN_POINT('',(-0.800000000000001,-5.9464274989274,7.75));
#501=CARTESIAN_POINT('Origin',(0.,0.,7.75));
#502=CARTESIAN_POINT('',(-0.799999999999999,-5.9464274989274,9.75));
#503=CARTESIAN_POINT('',(-0.799999999999999,-5.9464274989274,0.));
#504=CARTESIAN_POINT('Origin',(0.,0.,9.75));
#505=CARTESIAN_POINT('',(-6.,-7.34788079488412E-16,0.));
#506=CARTESIAN_POINT('Origin',(0.,0.,-10.));
#507=CARTESIAN_POINT('',(-3.3235,-4.07011363696623E-16,-9.75));
#508=CARTESIAN_POINT('',(-3.5735,4.37627533675307E-16,-10.));
#509=CARTESIAN_POINT('Origin',(0.,0.,-9.75));
#510=CARTESIAN_POINT('Origin',(0.,0.,-16.3629667643425));
#511=CARTESIAN_POINT('',(0.799999999999985,3.22577932444239,9.75));
#512=CARTESIAN_POINT('',(0.799999999999985,-3.22577932444239,9.75));
#513=CARTESIAN_POINT('Origin',(0.,0.,9.75));
#514=CARTESIAN_POINT('',(0.8,3.22577932444239,7.75));
#515=CARTESIAN_POINT('',(0.799999999999985,3.22577932444239,-16.3629667643425));
#516=CARTESIAN_POINT('',(-0.800000000000001,3.22577932444239,7.75));
#517=CARTESIAN_POINT('Origin',(0.,0.,7.75));
#518=CARTESIAN_POINT('',(-0.799999999999997,3.22577932444239,9.75));
#519=CARTESIAN_POINT('',(-0.799999999999997,3.22577932444239,-16.3629667643425));
#520=CARTESIAN_POINT('',(-3.3235,-4.07011363696623E-16,9.75));
#521=CARTESIAN_POINT('Origin',(0.,0.,9.75));
#522=CARTESIAN_POINT('',(-3.3235,-4.07011363696623E-16,-16.3629667643425));
#523=CARTESIAN_POINT('',(-0.799999999999997,-3.22577932444239,9.75));
#524=CARTESIAN_POINT('Origin',(0.,0.,9.75));
#525=CARTESIAN_POINT('',(-0.800000000000001,-3.22577932444239,7.75));
#526=CARTESIAN_POINT('',(-0.799999999999997,-3.22577932444239,-16.3629667643425));
#527=CARTESIAN_POINT('',(0.8,-3.22577932444239,7.75));
#528=CARTESIAN_POINT('Origin',(0.,0.,7.75));
#529=CARTESIAN_POINT('',(0.799999999999985,-3.22577932444239,-16.3629667643425));
#530=CARTESIAN_POINT('Origin',(0.,0.,10.));
#531=CARTESIAN_POINT('',(0.800000000000001,-3.73887045108546,10.25));
#532=CARTESIAN_POINT('Ctrl Pts',(0.799999999999985,-3.22577932444239,9.75));
#533=CARTESIAN_POINT('Ctrl Pts',(0.799999999999985,-3.46437710804364,9.98158230696515));
#534=CARTESIAN_POINT('Ctrl Pts',(0.800000000000001,-3.73887045108546,10.25));
#535=CARTESIAN_POINT('',(0.800000000000001,3.73887045108546,10.25));
#536=CARTESIAN_POINT('Origin',(0.,0.,10.25));
#537=CARTESIAN_POINT('Ctrl Pts',(0.800000000000001,3.73887045108546,10.25));
#538=CARTESIAN_POINT('Ctrl Pts',(0.799999999999985,3.46437710804364,9.98158230696515));
#539=CARTESIAN_POINT('Ctrl Pts',(0.799999999999985,3.22577932444239,9.75));
#540=CARTESIAN_POINT('Origin',(0.800000000000001,0.,10.25));
#541=CARTESIAN_POINT('',(0.800000000000001,5.44150714416512,10.25));
#542=CARTESIAN_POINT('',(0.800000000000001,0.,10.25));
#543=CARTESIAN_POINT('Ctrl Pts',(0.799999999999995,5.9464274989274,9.75));
#544=CARTESIAN_POINT('Ctrl Pts',(0.799999999999995,5.68299079209195,10.0110845462922));
#545=CARTESIAN_POINT('Ctrl Pts',(0.800000000000001,5.44150714416512,10.25));
#546=CARTESIAN_POINT('',(0.8,0.,7.75));
#547=CARTESIAN_POINT('Origin',(0.,0.,10.25));
#548=CARTESIAN_POINT('',(0.800000000000001,-5.44150714416512,10.25));
#549=CARTESIAN_POINT('',(0.800000000000001,0.,10.25));
#550=CARTESIAN_POINT('Origin',(0.,0.,10.25));
#551=CARTESIAN_POINT('Origin',(0.,0.,10.));
#552=CARTESIAN_POINT('',(-0.800000000000001,3.73887045108546,10.25));
#553=CARTESIAN_POINT('Ctrl Pts',(-0.799999999999997,3.22577932444239,9.75));
#554=CARTESIAN_POINT('Ctrl Pts',(-0.799999999999997,3.46437710804364,9.98158230696516));
#555=CARTESIAN_POINT('Ctrl Pts',(-0.800000000000001,3.73887045108546,10.25));
#556=CARTESIAN_POINT('',(-0.800000000000001,-3.73887045108546,10.25));
#557=CARTESIAN_POINT('Origin',(0.,0.,10.25));
#558=CARTESIAN_POINT('Ctrl Pts',(-0.800000000000001,-3.73887045108546,10.25));
#559=CARTESIAN_POINT('Ctrl Pts',(-0.799999999999997,-3.46437710804364,9.98158230696516));
#560=CARTESIAN_POINT('Ctrl Pts',(-0.799999999999997,-3.22577932444239,9.75));
#561=CARTESIAN_POINT('Origin',(-0.800000000000001,0.,7.75));
#562=CARTESIAN_POINT('',(-0.800000000000001,-5.44150714416512,10.25));
#563=CARTESIAN_POINT('',(-0.800000000000001,0.,10.25));
#564=CARTESIAN_POINT('Ctrl Pts',(-0.799999999999999,-5.9464274989274,9.75));
#565=CARTESIAN_POINT('Ctrl Pts',(-0.799999999999999,-5.68299079209266,10.0110845462915));
#566=CARTESIAN_POINT('Ctrl Pts',(-0.800000000000001,-5.44150714416512,10.25));
#567=CARTESIAN_POINT('',(-0.800000000000001,0.,7.75));
#568=CARTESIAN_POINT('Origin',(0.,0.,10.));
#569=CARTESIAN_POINT('',(-0.800000000000001,5.44150714416512,10.25));
#570=CARTESIAN_POINT('Origin',(0.,0.,10.25));
#571=CARTESIAN_POINT('Ctrl Pts',(-0.800000000000001,5.44150714416512,10.25));
#572=CARTESIAN_POINT('Ctrl Pts',(-0.799999999999999,5.68299079209836,10.0110845462858));
#573=CARTESIAN_POINT('Ctrl Pts',(-0.799999999999999,5.9464274989274,9.75));
#574=CARTESIAN_POINT('Origin',(-0.800000000000001,0.,7.75));
#575=CARTESIAN_POINT('',(-0.800000000000001,0.,7.75));
#576=CARTESIAN_POINT('',(-0.800000000000001,0.,10.25));
#577=CARTESIAN_POINT('Origin',(0.,0.,10.));
#578=CARTESIAN_POINT('Ctrl Pts',(0.800000000000001,-5.44150714416512,10.25));
#579=CARTESIAN_POINT('Ctrl Pts',(0.799999999999995,-5.68299079209766,10.0110845462865));
#580=CARTESIAN_POINT('Ctrl Pts',(0.799999999999995,-5.9464274989274,9.75));
#581=CARTESIAN_POINT('Origin',(0.800000000000001,0.,10.25));
#582=CARTESIAN_POINT('',(0.8,0.,7.75));
#583=CARTESIAN_POINT('Origin',(0.8,0.,7.75));
#584=CARTESIAN_POINT('Origin',(0.8,0.,7.75));
#585=CARTESIAN_POINT('Origin',(0.,0.,10.25));
#586=UNCERTAINTY_MEASURE_WITH_UNIT(LENGTH_MEASURE(0.01),#590,
'DISTANCE_ACCURACY_VALUE',
'Maximum model space distance between geometric entities at asserted c
onnectivities');
#587=UNCERTAINTY_MEASURE_WITH_UNIT(LENGTH_MEASURE(0.01),#590,
'DISTANCE_ACCURACY_VALUE',
'Maximum model space distance between geometric entities at asserted c
onnectivities');
#588=(
GEOMETRIC_REPRESENTATION_CONTEXT(3)
GLOBAL_UNCERTAINTY_ASSIGNED_CONTEXT((#586))
GLOBAL_UNIT_ASSIGNED_CONTEXT((#590,#592,#593))
REPRESENTATION_CONTEXT('','3D')
);
#589=(
GEOMETRIC_REPRESENTATION_CONTEXT(3)
GLOBAL_UNCERTAINTY_ASSIGNED_CONTEXT((#587))
GLOBAL_UNIT_ASSIGNED_CONTEXT((#590,#592,#593))
REPRESENTATION_CONTEXT('','3D')
);
#590=(
LENGTH_UNIT()
NAMED_UNIT(*)
SI_UNIT(.MILLI.,.METRE.)
);
#591=(
LENGTH_UNIT()
NAMED_UNIT(*)
SI_UNIT(.CENTI.,.METRE.)
);
#592=(
NAMED_UNIT(*)
PLANE_ANGLE_UNIT()
SI_UNIT($,.RADIAN.)
);
#593=(
NAMED_UNIT(*)
SI_UNIT($,.STERADIAN.)
SOLID_ANGLE_UNIT()
);
#594=SHAPE_DEFINITION_REPRESENTATION(#595,#596);
#595=PRODUCT_DEFINITION_SHAPE('',$,#598);
#596=SHAPE_REPRESENTATION('',(#343),#588);
#597=PRODUCT_DEFINITION_CONTEXT('part definition',#602,'design');
#598=PRODUCT_DEFINITION('B51-12-08','B51-12-08',#599,#597);
#599=PRODUCT_DEFINITION_FORMATION('A00',$,#604);
#600=PRODUCT_RELATED_PRODUCT_CATEGORY('B51-12-08','B51-12-08',(#604));
#601=APPLICATION_PROTOCOL_DEFINITION('international standard',
'automotive_design',2009,#602);
#602=APPLICATION_CONTEXT(
'Core Data for Automotive Mechanical Design Process');
#603=PRODUCT_CONTEXT('part definition',#602,'mechanical');
#604=PRODUCT('B51-12-08','B51-12-08',
'Boccola di riduzione M12-M8 lungh. 20 mm',(#603));
#605=PRESENTATION_STYLE_ASSIGNMENT((#606));
#606=SURFACE_STYLE_USAGE(.BOTH.,#609);
#607=SURFACE_STYLE_RENDERING_WITH_PROPERTIES($,#613,(#608));
#608=SURFACE_STYLE_TRANSPARENT(0.);
#609=SURFACE_SIDE_STYLE('',(#610,#607));
#610=SURFACE_STYLE_FILL_AREA(#611);
#611=FILL_AREA_STYLE('',(#612));
#612=FILL_AREA_STYLE_COLOUR('',#613);
#613=COLOUR_RGB('',0.745098039215686,0.737254901960784,0.729411764705882);
ENDSEC;
END-ISO-10303-21;
