ISO-10303-21;
HEADER;
/* Generated by software containing ST-Developer
 * from STEP Tools, Inc. (www.steptools.com) 
 */

FILE_DESCRIPTION(
/* description */ ('Puffer conico A2CN51 50X50 M10X28 60 SH'),
/* implementation_level */ '2;1');

FILE_NAME(
/* name */ 'C:\\Users\\Stefan.Nesic\\Desktop\\MATTIA\\A2CN51.stp',
/* time_stamp */ '2022-04-22T16:00:27+02:00',
/* author */ ('stefan.nesic'),
/* organization */ (''),
/* preprocessor_version */ 'ST-DEVELOPER v18.1',
/* originating_system */ 'Autodesk Inventor 2021',
/* authorisation */ '');

FILE_SCHEMA (('AUTOMOTIVE_DESIGN { 1 0 10303 214 3 1 1 }'));
ENDSEC;

DATA;
#10=MECHANICAL_DESIGN_GEOMETRIC_PRESENTATION_REPRESENTATION('',(#66,#67,
#68,#69,#70,#71),#193);
#11=SHAPE_REPRESENTATION_RELATIONSHIP('SRR','None',#200,#12);
#12=ADVANCED_BREP_SHAPE_REPRESENTATION('',(#13),#192);
#13=MANIFOLD_SOLID_BREP('Fivistop50_M8-Puffer conico',#77);
#14=FACE_BOUND('',#30,.T.);
#15=ELLIPSE('',#103,48.5,25.);
#16=(
BOUNDED_SURFACE()
B_SPLINE_SURFACE(2,2,((#140,#141,#142,#143,#144,#145,#146,#147,#148),(#149,
#150,#151,#152,#153,#154,#155,#156,#157),(#158,#159,#160,#161,#162,#163,
#164,#165,#166),(#167,#168,#169,#170,#171,#172,#173,#174,#175),(#176,#177,
#178,#179,#180,#181,#182,#183,#184)),.UNSPECIFIED.,.F.,.T.,.F.)
B_SPLINE_SURFACE_WITH_KNOTS((3,2,3),(3,2,2,2,3),(0.,0.5,1.),(0.,0.25,0.5,
0.75,1.),.UNSPECIFIED.)
GEOMETRIC_REPRESENTATION_ITEM()
RATIONAL_B_SPLINE_SURFACE(((1.,0.707106781186548,1.,0.707106781186548,1.,
0.707106781186548,1.,0.707106781186548,1.),(0.923879532511286,0.653281482438188,
0.923879532511286,0.653281482438188,0.923879532511286,0.653281482438188,
0.923879532511286,0.653281482438188,0.923879532511286),(1.,0.707106781186548,
1.,0.707106781186548,1.,0.707106781186548,1.,0.707106781186548,1.),(0.923879532511286,
0.653281482438188,0.923879532511286,0.653281482438188,0.923879532511286,
0.653281482438188,0.923879532511286,0.653281482438188,0.923879532511286),
(1.,0.707106781186548,1.,0.707106781186548,1.,0.707106781186548,1.,0.707106781186548,
1.)))
REPRESENTATION_ITEM('')
SURFACE()
);
#17=PLANE('',#102);
#18=PLANE('',#105);
#19=CYLINDRICAL_SURFACE('',#100,4.);
#20=FACE_OUTER_BOUND('',#25,.T.);
#21=FACE_OUTER_BOUND('',#26,.T.);
#22=FACE_OUTER_BOUND('',#27,.T.);
#23=FACE_OUTER_BOUND('',#28,.T.);
#24=FACE_OUTER_BOUND('',#29,.T.);
#25=EDGE_LOOP('',(#51,#52,#53,#54));
#26=EDGE_LOOP('',(#55,#56,#57,#58));
#27=EDGE_LOOP('',(#59));
#28=EDGE_LOOP('',(#60,#61,#62));
#29=EDGE_LOOP('',(#63));
#30=EDGE_LOOP('',(#64));
#31=LINE('',#133,#33);
#32=LINE('',#137,#34);
#33=VECTOR('',#112,3.75);
#34=VECTOR('',#117,4.);
#35=CIRCLE('',#98,4.);
#36=CIRCLE('',#99,3.5);
#37=CIRCLE('',#101,4.);
#38=CIRCLE('',#104,25.);
#39=VERTEX_POINT('',#130);
#40=VERTEX_POINT('',#132);
#41=VERTEX_POINT('',#136);
#42=VERTEX_POINT('',#185);
#43=VERTEX_POINT('',#186);
#44=EDGE_CURVE('',#39,#39,#35,.T.);
#45=EDGE_CURVE('',#39,#40,#31,.T.);
#46=EDGE_CURVE('',#40,#40,#36,.T.);
#47=EDGE_CURVE('',#39,#41,#32,.T.);
#48=EDGE_CURVE('',#41,#41,#37,.T.);
#49=EDGE_CURVE('',#42,#43,#15,.T.);
#50=EDGE_CURVE('',#42,#42,#38,.T.);
#51=ORIENTED_EDGE('',*,*,#44,.T.);
#52=ORIENTED_EDGE('',*,*,#45,.T.);
#53=ORIENTED_EDGE('',*,*,#46,.T.);
#54=ORIENTED_EDGE('',*,*,#45,.F.);
#55=ORIENTED_EDGE('',*,*,#44,.F.);
#56=ORIENTED_EDGE('',*,*,#47,.T.);
#57=ORIENTED_EDGE('',*,*,#48,.F.);
#58=ORIENTED_EDGE('',*,*,#47,.F.);
#59=ORIENTED_EDGE('',*,*,#46,.F.);
#60=ORIENTED_EDGE('',*,*,#49,.T.);
#61=ORIENTED_EDGE('',*,*,#49,.F.);
#62=ORIENTED_EDGE('',*,*,#50,.T.);
#63=ORIENTED_EDGE('',*,*,#50,.F.);
#64=ORIENTED_EDGE('',*,*,#48,.T.);
#65=CONICAL_SURFACE('',#97,3.75,0.78539816339745);
#66=STYLED_ITEM('',(#209),#72);
#67=STYLED_ITEM('',(#209),#73);
#68=STYLED_ITEM('',(#209),#74);
#69=STYLED_ITEM('',(#209),#75);
#70=STYLED_ITEM('',(#209),#76);
#71=STYLED_ITEM('',(#209),#13);
#72=ADVANCED_FACE('',(#20),#65,.T.);
#73=ADVANCED_FACE('',(#21),#19,.T.);
#74=ADVANCED_FACE('',(#22),#17,.F.);
#75=ADVANCED_FACE('',(#23),#16,.T.);
#76=ADVANCED_FACE('',(#24,#14),#18,.T.);
#77=CLOSED_SHELL('',(#72,#73,#74,#75,#76));
#78=DERIVED_UNIT_ELEMENT(#80,1.);
#79=DERIVED_UNIT_ELEMENT(#195,-3.);
#80=(
MASS_UNIT()
NAMED_UNIT(*)
SI_UNIT($,.GRAM.)
);
#81=DERIVED_UNIT((#78,#79));
#82=MEASURE_REPRESENTATION_ITEM('density measure',
POSITIVE_RATIO_MEASURE(1.),#81);
#83=PROPERTY_DEFINITION_REPRESENTATION(#88,#85);
#84=PROPERTY_DEFINITION_REPRESENTATION(#89,#86);
#85=REPRESENTATION('material name',(#87),#192);
#86=REPRESENTATION('density',(#82),#192);
#87=DESCRIPTIVE_REPRESENTATION_ITEM('Generico','Generico');
#88=PROPERTY_DEFINITION('material property','material name',#202);
#89=PROPERTY_DEFINITION('material property','density of part',#202);
#90=DATE_TIME_ROLE('creation_date');
#91=APPLIED_DATE_AND_TIME_ASSIGNMENT(#92,#90,(#202));
#92=DATE_AND_TIME(#93,#94);
#93=CALENDAR_DATE(2016,9,10);
#94=LOCAL_TIME(0,0,0.,#95);
#95=COORDINATED_UNIVERSAL_TIME_OFFSET(0,0,.BEHIND.);
#96=AXIS2_PLACEMENT_3D('placement',#128,#106,#107);
#97=AXIS2_PLACEMENT_3D('',#129,#108,#109);
#98=AXIS2_PLACEMENT_3D('',#131,#110,#111);
#99=AXIS2_PLACEMENT_3D('',#134,#113,#114);
#100=AXIS2_PLACEMENT_3D('',#135,#115,#116);
#101=AXIS2_PLACEMENT_3D('',#138,#118,#119);
#102=AXIS2_PLACEMENT_3D('',#139,#120,#121);
#103=AXIS2_PLACEMENT_3D('',#187,#122,#123);
#104=AXIS2_PLACEMENT_3D('',#188,#124,#125);
#105=AXIS2_PLACEMENT_3D('',#189,#126,#127);
#106=DIRECTION('axis',(0.,0.,1.));
#107=DIRECTION('refdir',(1.,0.,0.));
#108=DIRECTION('center_axis',(1.,0.,0.));
#109=DIRECTION('ref_axis',(0.,0.,-1.));
#110=DIRECTION('center_axis',(-1.,0.,0.));
#111=DIRECTION('ref_axis',(0.,0.,-1.));
#112=DIRECTION('',(-0.707106781186546,8.65956056235495E-17,-0.707106781186549));
#113=DIRECTION('center_axis',(1.,0.,0.));
#114=DIRECTION('ref_axis',(0.,0.,-1.));
#115=DIRECTION('center_axis',(-1.,0.,0.));
#116=DIRECTION('ref_axis',(0.,0.,-1.));
#117=DIRECTION('',(1.,0.,0.));
#118=DIRECTION('center_axis',(1.,0.,0.));
#119=DIRECTION('ref_axis',(0.,0.,-1.));
#120=DIRECTION('center_axis',(1.,0.,0.));
#121=DIRECTION('ref_axis',(0.,0.,-1.));
#122=DIRECTION('center_axis',(0.,0.,-1.));
#123=DIRECTION('ref_axis',(-1.,0.,0.));
#124=DIRECTION('center_axis',(1.,0.,0.));
#125=DIRECTION('ref_axis',(0.,1.,0.));
#126=DIRECTION('center_axis',(-1.,0.,0.));
#127=DIRECTION('ref_axis',(0.,0.,1.));
#128=CARTESIAN_POINT('',(0.,0.,0.));
#129=CARTESIAN_POINT('Origin',(-40.1349951995752,4.59032574838977,0.));
#130=CARTESIAN_POINT('',(-39.8849951995752,4.59032574838978,4.));
#131=CARTESIAN_POINT('Origin',(-39.8849951995752,4.59032574838977,0.));
#132=CARTESIAN_POINT('',(-40.3849951995752,4.59032574838977,3.5));
#133=CARTESIAN_POINT('',(-40.1349951995752,4.59032574838977,3.75));
#134=CARTESIAN_POINT('Origin',(-40.3849951995752,4.59032574838977,0.));
#135=CARTESIAN_POINT('Origin',(-20.3849951995752,4.59032574838977,0.));
#136=CARTESIAN_POINT('',(-20.3849951995752,4.59032574838977,4.));
#137=CARTESIAN_POINT('',(-20.3849951995752,4.59032574838977,4.));
#138=CARTESIAN_POINT('Origin',(-20.3849951995752,4.59032574838977,0.));
#139=CARTESIAN_POINT('Origin',(-40.3849951995752,4.59032574838977,0.));
#140=CARTESIAN_POINT('Ctrl Pts',(28.1150048004248,4.59032574838976,0.));
#141=CARTESIAN_POINT('Ctrl Pts',(28.1150048004248,4.59032574838976,0.));
#142=CARTESIAN_POINT('Ctrl Pts',(28.1150048004248,4.59032574838976,0.));
#143=CARTESIAN_POINT('Ctrl Pts',(28.1150048004248,4.59032574838976,0.));
#144=CARTESIAN_POINT('Ctrl Pts',(28.1150048004248,4.59032574838976,0.));
#145=CARTESIAN_POINT('Ctrl Pts',(28.1150048004248,4.59032574838976,0.));
#146=CARTESIAN_POINT('Ctrl Pts',(28.1150048004248,4.59032574838976,0.));
#147=CARTESIAN_POINT('Ctrl Pts',(28.1150048004248,4.59032574838976,0.));
#148=CARTESIAN_POINT('Ctrl Pts',(28.1150048004248,4.59032574838976,0.));
#149=CARTESIAN_POINT('Ctrl Pts',(28.1150048004248,14.9456648077171,0.));
#150=CARTESIAN_POINT('Ctrl Pts',(28.1150048004248,14.9456648077171,10.3553390593274));
#151=CARTESIAN_POINT('Ctrl Pts',(28.1150048004248,4.59032574838976,10.3553390593274));
#152=CARTESIAN_POINT('Ctrl Pts',(28.1150048004248,-5.76501331093762,10.3553390593274));
#153=CARTESIAN_POINT('Ctrl Pts',(28.1150048004248,-5.76501331093762,0.));
#154=CARTESIAN_POINT('Ctrl Pts',(28.1150048004248,-5.76501331093762,-10.3553390593274));
#155=CARTESIAN_POINT('Ctrl Pts',(28.1150048004248,4.59032574838976,-10.3553390593274));
#156=CARTESIAN_POINT('Ctrl Pts',(28.1150048004248,14.9456648077171,-10.3553390593274));
#157=CARTESIAN_POINT('Ctrl Pts',(28.1150048004248,14.9456648077171,0.));
#158=CARTESIAN_POINT('Ctrl Pts',(13.9096836879724,22.2679952780535,0.));
#159=CARTESIAN_POINT('Ctrl Pts',(13.9096836879724,22.2679952780535,17.6776695296637));
#160=CARTESIAN_POINT('Ctrl Pts',(13.9096836879724,4.59032574838976,17.6776695296637));
#161=CARTESIAN_POINT('Ctrl Pts',(13.9096836879723,-13.0873437812739,17.6776695296637));
#162=CARTESIAN_POINT('Ctrl Pts',(13.9096836879723,-13.0873437812739,0.));
#163=CARTESIAN_POINT('Ctrl Pts',(13.9096836879723,-13.0873437812739,-17.6776695296637));
#164=CARTESIAN_POINT('Ctrl Pts',(13.9096836879724,4.59032574838976,-17.6776695296637));
#165=CARTESIAN_POINT('Ctrl Pts',(13.9096836879724,22.2679952780535,-17.6776695296637));
#166=CARTESIAN_POINT('Ctrl Pts',(13.9096836879724,22.2679952780535,0.));
#167=CARTESIAN_POINT('Ctrl Pts',(-0.295637424480098,29.5903257483898,0.));
#168=CARTESIAN_POINT('Ctrl Pts',(-0.295637424480101,29.5903257483898,25.));
#169=CARTESIAN_POINT('Ctrl Pts',(-0.295637424480101,4.59032574838977,25.));
#170=CARTESIAN_POINT('Ctrl Pts',(-0.295637424480101,-20.4096742516102,25.));
#171=CARTESIAN_POINT('Ctrl Pts',(-0.295637424480105,-20.4096742516102,0.));
#172=CARTESIAN_POINT('Ctrl Pts',(-0.295637424480101,-20.4096742516102,-25.));
#173=CARTESIAN_POINT('Ctrl Pts',(-0.295637424480101,4.59032574838977,-25.));
#174=CARTESIAN_POINT('Ctrl Pts',(-0.295637424480101,29.5903257483898,-25.));
#175=CARTESIAN_POINT('Ctrl Pts',(-0.295637424480098,29.5903257483898,0.));
#176=CARTESIAN_POINT('Ctrl Pts',(-20.3849951995752,29.5903257483898,0.));
#177=CARTESIAN_POINT('Ctrl Pts',(-20.3849951995752,29.5903257483898,25.));
#178=CARTESIAN_POINT('Ctrl Pts',(-20.3849951995752,4.59032574838977,25.));
#179=CARTESIAN_POINT('Ctrl Pts',(-20.3849951995752,-20.4096742516102,25.));
#180=CARTESIAN_POINT('Ctrl Pts',(-20.3849951995752,-20.4096742516102,0.));
#181=CARTESIAN_POINT('Ctrl Pts',(-20.3849951995752,-20.4096742516102,-25.));
#182=CARTESIAN_POINT('Ctrl Pts',(-20.3849951995752,4.59032574838977,-25.));
#183=CARTESIAN_POINT('Ctrl Pts',(-20.3849951995752,29.5903257483898,-25.));
#184=CARTESIAN_POINT('Ctrl Pts',(-20.3849951995752,29.5903257483898,0.));
#185=CARTESIAN_POINT('',(-20.3849951995752,29.5903257483898,0.));
#186=CARTESIAN_POINT('',(28.1150048004248,4.59032574838976,0.));
#187=CARTESIAN_POINT('Origin',(-20.3849951995752,4.59032574838977,0.));
#188=CARTESIAN_POINT('Origin',(-20.3849951995752,4.59032574838977,0.));
#189=CARTESIAN_POINT('Origin',(-20.3849951995752,17.0903257483898,0.));
#190=UNCERTAINTY_MEASURE_WITH_UNIT(LENGTH_MEASURE(0.01),#194,
'DISTANCE_ACCURACY_VALUE',
'Maximum model space distance between geometric entities at asserted c
onnectivities');
#191=UNCERTAINTY_MEASURE_WITH_UNIT(LENGTH_MEASURE(0.01),#194,
'DISTANCE_ACCURACY_VALUE',
'Maximum model space distance between geometric entities at asserted c
onnectivities');
#192=(
GEOMETRIC_REPRESENTATION_CONTEXT(3)
GLOBAL_UNCERTAINTY_ASSIGNED_CONTEXT((#190))
GLOBAL_UNIT_ASSIGNED_CONTEXT((#194,#196,#197))
REPRESENTATION_CONTEXT('','3D')
);
#193=(
GEOMETRIC_REPRESENTATION_CONTEXT(3)
GLOBAL_UNCERTAINTY_ASSIGNED_CONTEXT((#191))
GLOBAL_UNIT_ASSIGNED_CONTEXT((#194,#196,#197))
REPRESENTATION_CONTEXT('','3D')
);
#194=(
LENGTH_UNIT()
NAMED_UNIT(*)
SI_UNIT(.MILLI.,.METRE.)
);
#195=(
LENGTH_UNIT()
NAMED_UNIT(*)
SI_UNIT(.CENTI.,.METRE.)
);
#196=(
NAMED_UNIT(*)
PLANE_ANGLE_UNIT()
SI_UNIT($,.RADIAN.)
);
#197=(
NAMED_UNIT(*)
SI_UNIT($,.STERADIAN.)
SOLID_ANGLE_UNIT()
);
#198=SHAPE_DEFINITION_REPRESENTATION(#199,#200);
#199=PRODUCT_DEFINITION_SHAPE('',$,#202);
#200=SHAPE_REPRESENTATION('',(#96),#192);
#201=PRODUCT_DEFINITION_CONTEXT('part definition',#206,'design');
#202=PRODUCT_DEFINITION('A2CN51','A2CN51',#203,#201);
#203=PRODUCT_DEFINITION_FORMATION('A00',$,#208);
#204=PRODUCT_RELATED_PRODUCT_CATEGORY('A2CN51','A2CN51',(#208));
#205=APPLICATION_PROTOCOL_DEFINITION('international standard',
'automotive_design',2009,#206);
#206=APPLICATION_CONTEXT(
'Core Data for Automotive Mechanical Design Process');
#207=PRODUCT_CONTEXT('part definition',#206,'mechanical');
#208=PRODUCT('A2CN51','A2CN51',
'Puffer conico A2CN51 50X50 M10X28 60 SH',(#207));
#209=PRESENTATION_STYLE_ASSIGNMENT((#210));
#210=SURFACE_STYLE_USAGE(.BOTH.,#213);
#211=SURFACE_STYLE_RENDERING_WITH_PROPERTIES($,#217,(#212));
#212=SURFACE_STYLE_TRANSPARENT(0.);
#213=SURFACE_SIDE_STYLE('',(#214,#211));
#214=SURFACE_STYLE_FILL_AREA(#215);
#215=FILL_AREA_STYLE('',(#216));
#216=FILL_AREA_STYLE_COLOUR('',#217);
#217=COLOUR_RGB('',0.309803921568627,0.309803921568627,0.309803921568627);
ENDSEC;
END-ISO-10303-21;
