ISO-10303-21;
HEADER;
/* Generated by software containing ST-Developer
 * from STEP Tools, Inc. (www.steptools.com) 
 */

FILE_DESCRIPTION(
/* description */ (''),
/* implementation_level */ '2;1');

FILE_NAME(
/* name */ 'C:\\Users\\Stefan.Nesic\\Desktop\\01010STEP\\nuovi\\A2CN39.
stp',
/* time_stamp */ '2022-07-01T14:54:46+02:00',
/* author */ ('stefan.nesic'),
/* organization */ (''),
/* preprocessor_version */ 'ST-DEVELOPER v18.1',
/* originating_system */ 'Autodesk Inventor 2021',
/* authorisation */ '');

FILE_SCHEMA (('AUTOMOTIVE_DESIGN { 1 0 10303 214 3 1 1 }'));
ENDSEC;

DATA;
#10=MECHANICAL_DESIGN_GEOMETRIC_PRESENTATION_REPRESENTATION('',(#17,#18,
#19),#201);
#11=SHAPE_REPRESENTATION_RELATIONSHIP('SRR','None',#208,#12);
#12=ADVANCED_BREP_SHAPE_REPRESENTATION('',(#13),#200);
#13=MANIFOLD_SOLID_BREP('Solido1',#79);
#14=FACE_BOUND('',#33,.T.);
#15=B_SPLINE_CURVE_WITH_KNOTS('',4,(#191,#192,#193,#194,#195),
 .UNSPECIFIED.,.F.,.F.,(5,5),(1.,2.),.UNSPECIFIED.);
#16=(
BOUNDED_SURFACE()
B_SPLINE_SURFACE(4,2,((#144,#145,#146,#147,#148,#149,#150,#151,#152),(#153,
#154,#155,#156,#157,#158,#159,#160,#161),(#162,#163,#164,#165,#166,#167,
#168,#169,#170),(#171,#172,#173,#174,#175,#176,#177,#178,#179),(#180,#181,
#182,#183,#184,#185,#186,#187,#188)),.UNSPECIFIED.,.F.,.T.,.F.)
B_SPLINE_SURFACE_WITH_KNOTS((5,5),(3,2,2,2,3),(1.,2.),(0.,1.5707963267949,
3.14159265358979,4.71238898038469,6.28318530717959),.UNSPECIFIED.)
GEOMETRIC_REPRESENTATION_ITEM()
RATIONAL_B_SPLINE_SURFACE(((1.,0.707106781186548,1.,0.707106781186548,1.,
0.707106781186548,1.,0.707106781186548,1.),(1.,0.707106781186548,1.,0.707106781186548,
1.,0.707106781186548,1.,0.707106781186548,1.),(1.,0.707106781186548,1.,
0.707106781186548,1.,0.707106781186548,1.,0.707106781186548,1.),(1.,0.707106781186548,
1.,0.707106781186548,1.,0.707106781186548,1.,0.707106781186548,1.),(1.,
0.707106781186548,1.,0.707106781186548,1.,0.707106781186548,1.,0.707106781186548,
1.)))
REPRESENTATION_ITEM('')
SURFACE()
);
#17=STYLED_ITEM('',(#218),#77);
#18=STYLED_ITEM('',(#219),#78);
#19=STYLED_ITEM('',(#217),#13);
#20=CYLINDRICAL_SURFACE('',#104,4.);
#21=PLANE('',#103);
#22=PLANE('',#107);
#23=FACE_OUTER_BOUND('',#28,.T.);
#24=FACE_OUTER_BOUND('',#29,.T.);
#25=FACE_OUTER_BOUND('',#30,.T.);
#26=FACE_OUTER_BOUND('',#31,.T.);
#27=FACE_OUTER_BOUND('',#32,.T.);
#28=EDGE_LOOP('',(#57,#58,#59,#60,#61));
#29=EDGE_LOOP('',(#62));
#30=EDGE_LOOP('',(#63,#64,#65,#66,#67));
#31=EDGE_LOOP('',(#68,#69,#70));
#32=EDGE_LOOP('',(#71));
#33=EDGE_LOOP('',(#72));
#34=LINE('',#137,#36);
#35=LINE('',#143,#37);
#36=VECTOR('',#116,3.5);
#37=VECTOR('',#125,4.);
#38=CIRCLE('',#100,4.);
#39=CIRCLE('',#101,4.);
#40=CIRCLE('',#102,3.);
#41=CIRCLE('',#105,4.);
#42=CIRCLE('',#106,20.);
#43=VERTEX_POINT('',#132);
#44=VERTEX_POINT('',#133);
#45=VERTEX_POINT('',#136);
#46=VERTEX_POINT('',#141);
#47=VERTEX_POINT('',#189);
#48=VERTEX_POINT('',#190);
#49=EDGE_CURVE('',#43,#44,#38,.T.);
#50=EDGE_CURVE('',#44,#43,#39,.T.);
#51=EDGE_CURVE('',#43,#45,#34,.T.);
#52=EDGE_CURVE('',#45,#45,#40,.T.);
#53=EDGE_CURVE('',#46,#46,#41,.T.);
#54=EDGE_CURVE('',#46,#44,#35,.T.);
#55=EDGE_CURVE('',#47,#48,#15,.T.);
#56=EDGE_CURVE('',#48,#48,#42,.T.);
#57=ORIENTED_EDGE('',*,*,#49,.T.);
#58=ORIENTED_EDGE('',*,*,#50,.T.);
#59=ORIENTED_EDGE('',*,*,#51,.T.);
#60=ORIENTED_EDGE('',*,*,#52,.T.);
#61=ORIENTED_EDGE('',*,*,#51,.F.);
#62=ORIENTED_EDGE('',*,*,#52,.F.);
#63=ORIENTED_EDGE('',*,*,#53,.F.);
#64=ORIENTED_EDGE('',*,*,#54,.T.);
#65=ORIENTED_EDGE('',*,*,#49,.F.);
#66=ORIENTED_EDGE('',*,*,#50,.F.);
#67=ORIENTED_EDGE('',*,*,#54,.F.);
#68=ORIENTED_EDGE('',*,*,#55,.T.);
#69=ORIENTED_EDGE('',*,*,#56,.T.);
#70=ORIENTED_EDGE('',*,*,#55,.F.);
#71=ORIENTED_EDGE('',*,*,#56,.F.);
#72=ORIENTED_EDGE('',*,*,#53,.T.);
#73=CONICAL_SURFACE('',#99,3.5,0.785398163397449);
#74=ADVANCED_FACE('',(#23),#73,.T.);
#75=ADVANCED_FACE('',(#24),#21,.T.);
#76=ADVANCED_FACE('',(#25),#20,.T.);
#77=ADVANCED_FACE('',(#26),#16,.T.);
#78=ADVANCED_FACE('',(#27,#14),#22,.T.);
#79=CLOSED_SHELL('',(#74,#75,#76,#77,#78));
#80=DERIVED_UNIT_ELEMENT(#82,1.);
#81=DERIVED_UNIT_ELEMENT(#203,-3.);
#82=(
MASS_UNIT()
NAMED_UNIT(*)
SI_UNIT($,.GRAM.)
);
#83=DERIVED_UNIT((#80,#81));
#84=MEASURE_REPRESENTATION_ITEM('density measure',
POSITIVE_RATIO_MEASURE(1.),#83);
#85=PROPERTY_DEFINITION_REPRESENTATION(#90,#87);
#86=PROPERTY_DEFINITION_REPRESENTATION(#91,#88);
#87=REPRESENTATION('material name',(#89),#200);
#88=REPRESENTATION('density',(#84),#200);
#89=DESCRIPTIVE_REPRESENTATION_ITEM('Generico','Generico');
#90=PROPERTY_DEFINITION('material property','material name',#210);
#91=PROPERTY_DEFINITION('material property','density of part',#210);
#92=DATE_TIME_ROLE('creation_date');
#93=APPLIED_DATE_AND_TIME_ASSIGNMENT(#94,#92,(#210));
#94=DATE_AND_TIME(#95,#96);
#95=CALENDAR_DATE(2022,1,7);
#96=LOCAL_TIME(0,0,0.,#97);
#97=COORDINATED_UNIVERSAL_TIME_OFFSET(0,0,.BEHIND.);
#98=AXIS2_PLACEMENT_3D('placement',#130,#108,#109);
#99=AXIS2_PLACEMENT_3D('',#131,#110,#111);
#100=AXIS2_PLACEMENT_3D('',#134,#112,#113);
#101=AXIS2_PLACEMENT_3D('',#135,#114,#115);
#102=AXIS2_PLACEMENT_3D('',#138,#117,#118);
#103=AXIS2_PLACEMENT_3D('',#139,#119,#120);
#104=AXIS2_PLACEMENT_3D('',#140,#121,#122);
#105=AXIS2_PLACEMENT_3D('',#142,#123,#124);
#106=AXIS2_PLACEMENT_3D('',#196,#126,#127);
#107=AXIS2_PLACEMENT_3D('',#197,#128,#129);
#108=DIRECTION('axis',(0.,0.,1.));
#109=DIRECTION('refdir',(1.,0.,0.));
#110=DIRECTION('center_axis',(0.,1.,0.));
#111=DIRECTION('ref_axis',(1.,0.,0.));
#112=DIRECTION('center_axis',(0.,-1.,0.));
#113=DIRECTION('ref_axis',(1.,0.,0.));
#114=DIRECTION('center_axis',(0.,-1.,0.));
#115=DIRECTION('ref_axis',(1.,0.,0.));
#116=DIRECTION('',(0.707106781186548,-0.707106781186547,-8.65956056235493E-17));
#117=DIRECTION('center_axis',(0.,1.,0.));
#118=DIRECTION('ref_axis',(1.,0.,0.));
#119=DIRECTION('center_axis',(0.,-1.,0.));
#120=DIRECTION('ref_axis',(0.,0.,-1.));
#121=DIRECTION('center_axis',(0.,1.,0.));
#122=DIRECTION('ref_axis',(-1.,0.,0.));
#123=DIRECTION('center_axis',(0.,1.,0.));
#124=DIRECTION('ref_axis',(1.,0.,0.));
#125=DIRECTION('',(0.,-1.,0.));
#126=DIRECTION('center_axis',(0.,1.,0.));
#127=DIRECTION('ref_axis',(1.,0.,0.));
#128=DIRECTION('center_axis',(0.,-1.,0.));
#129=DIRECTION('ref_axis',(0.,0.,-1.));
#130=CARTESIAN_POINT('',(0.,0.,0.));
#131=CARTESIAN_POINT('Origin',(0.,-22.5,0.));
#132=CARTESIAN_POINT('',(-4.,-22.,-4.89858719658941E-16));
#133=CARTESIAN_POINT('',(4.,-22.,-4.89858719658941E-16));
#134=CARTESIAN_POINT('Origin',(0.,-22.,0.));
#135=CARTESIAN_POINT('Origin',(0.,-22.,0.));
#136=CARTESIAN_POINT('',(-3.,-23.,3.67394039744206E-16));
#137=CARTESIAN_POINT('',(-3.5,-22.5,4.28626379701573E-16));
#138=CARTESIAN_POINT('Origin',(0.,-23.,0.));
#139=CARTESIAN_POINT('Origin',(-4.,-23.,0.));
#140=CARTESIAN_POINT('Origin',(0.,-11.5,0.));
#141=CARTESIAN_POINT('',(4.,0.,-4.89858719658941E-16));
#142=CARTESIAN_POINT('Origin',(0.,-4.89858719658942E-16,0.));
#143=CARTESIAN_POINT('',(4.,-11.5,-4.89858719658941E-16));
#144=CARTESIAN_POINT('Ctrl Pts',(0.,30.,0.));
#145=CARTESIAN_POINT('Ctrl Pts',(0.,30.,0.));
#146=CARTESIAN_POINT('Ctrl Pts',(0.,30.,0.));
#147=CARTESIAN_POINT('Ctrl Pts',(0.,30.,0.));
#148=CARTESIAN_POINT('Ctrl Pts',(0.,30.,0.));
#149=CARTESIAN_POINT('Ctrl Pts',(0.,30.,0.));
#150=CARTESIAN_POINT('Ctrl Pts',(0.,30.,0.));
#151=CARTESIAN_POINT('Ctrl Pts',(0.,30.,0.));
#152=CARTESIAN_POINT('Ctrl Pts',(0.,30.,0.));
#153=CARTESIAN_POINT('Ctrl Pts',(-6.56163697335139,28.9392763738125,0.));
#154=CARTESIAN_POINT('Ctrl Pts',(-6.56163697335139,28.9392763738125,6.56163697335139));
#155=CARTESIAN_POINT('Ctrl Pts',(0.,28.9392763738125,6.56163697335139));
#156=CARTESIAN_POINT('Ctrl Pts',(6.56163697335139,28.9392763738125,6.56163697335139));
#157=CARTESIAN_POINT('Ctrl Pts',(6.56163697335139,28.9392763738125,0.));
#158=CARTESIAN_POINT('Ctrl Pts',(6.56163697335139,28.9392763738125,-6.56163697335139));
#159=CARTESIAN_POINT('Ctrl Pts',(0.,28.9392763738125,-6.56163697335139));
#160=CARTESIAN_POINT('Ctrl Pts',(-6.56163697335139,28.9392763738125,-6.56163697335139));
#161=CARTESIAN_POINT('Ctrl Pts',(-6.56163697335139,28.9392763738125,0.));
#162=CARTESIAN_POINT('Ctrl Pts',(-14.811725434921,22.1512291676644,0.));
#163=CARTESIAN_POINT('Ctrl Pts',(-14.811725434921,22.1512291676644,14.811725434921));
#164=CARTESIAN_POINT('Ctrl Pts',(0.,22.1512291676644,14.811725434921));
#165=CARTESIAN_POINT('Ctrl Pts',(14.811725434921,22.1512291676644,14.811725434921));
#166=CARTESIAN_POINT('Ctrl Pts',(14.811725434921,22.1512291676644,0.));
#167=CARTESIAN_POINT('Ctrl Pts',(14.811725434921,22.1512291676644,-14.811725434921));
#168=CARTESIAN_POINT('Ctrl Pts',(0.,22.1512291676644,-14.811725434921));
#169=CARTESIAN_POINT('Ctrl Pts',(-14.811725434921,22.1512291676644,-14.811725434921));
#170=CARTESIAN_POINT('Ctrl Pts',(-14.811725434921,22.1512291676644,0.));
#171=CARTESIAN_POINT('Ctrl Pts',(-20.,6.48650484578426,0.));
#172=CARTESIAN_POINT('Ctrl Pts',(-20.,6.48650484578426,20.));
#173=CARTESIAN_POINT('Ctrl Pts',(0.,6.48650484578426,20.));
#174=CARTESIAN_POINT('Ctrl Pts',(20.,6.48650484578426,20.));
#175=CARTESIAN_POINT('Ctrl Pts',(20.,6.48650484578426,0.));
#176=CARTESIAN_POINT('Ctrl Pts',(20.,6.48650484578426,-20.));
#177=CARTESIAN_POINT('Ctrl Pts',(0.,6.48650484578426,-20.));
#178=CARTESIAN_POINT('Ctrl Pts',(-20.,6.48650484578426,-20.));
#179=CARTESIAN_POINT('Ctrl Pts',(-20.,6.48650484578426,0.));
#180=CARTESIAN_POINT('Ctrl Pts',(-20.,0.,0.));
#181=CARTESIAN_POINT('Ctrl Pts',(-20.,0.,20.));
#182=CARTESIAN_POINT('Ctrl Pts',(0.,0.,20.));
#183=CARTESIAN_POINT('Ctrl Pts',(20.,0.,20.));
#184=CARTESIAN_POINT('Ctrl Pts',(20.,0.,0.));
#185=CARTESIAN_POINT('Ctrl Pts',(20.,0.,-20.));
#186=CARTESIAN_POINT('Ctrl Pts',(0.,0.,-20.));
#187=CARTESIAN_POINT('Ctrl Pts',(-20.,0.,-20.));
#188=CARTESIAN_POINT('Ctrl Pts',(-20.,0.,0.));
#189=CARTESIAN_POINT('',(0.,30.,0.));
#190=CARTESIAN_POINT('',(-20.,0.,0.));
#191=CARTESIAN_POINT('Ctrl Pts',(0.,30.,0.));
#192=CARTESIAN_POINT('Ctrl Pts',(-6.56163697335139,28.9392763738125,0.));
#193=CARTESIAN_POINT('Ctrl Pts',(-14.811725434921,22.1512291676644,0.));
#194=CARTESIAN_POINT('Ctrl Pts',(-20.,6.48650484578426,0.));
#195=CARTESIAN_POINT('Ctrl Pts',(-20.,0.,0.));
#196=CARTESIAN_POINT('Origin',(0.,0.,0.));
#197=CARTESIAN_POINT('Origin',(-20.,0.,0.));
#198=UNCERTAINTY_MEASURE_WITH_UNIT(LENGTH_MEASURE(0.01),#202,
'DISTANCE_ACCURACY_VALUE',
'Maximum model space distance between geometric entities at asserted c
onnectivities');
#199=UNCERTAINTY_MEASURE_WITH_UNIT(LENGTH_MEASURE(0.01),#202,
'DISTANCE_ACCURACY_VALUE',
'Maximum model space distance between geometric entities at asserted c
onnectivities');
#200=(
GEOMETRIC_REPRESENTATION_CONTEXT(3)
GLOBAL_UNCERTAINTY_ASSIGNED_CONTEXT((#198))
GLOBAL_UNIT_ASSIGNED_CONTEXT((#202,#204,#205))
REPRESENTATION_CONTEXT('','3D')
);
#201=(
GEOMETRIC_REPRESENTATION_CONTEXT(3)
GLOBAL_UNCERTAINTY_ASSIGNED_CONTEXT((#199))
GLOBAL_UNIT_ASSIGNED_CONTEXT((#202,#204,#205))
REPRESENTATION_CONTEXT('','3D')
);
#202=(
LENGTH_UNIT()
NAMED_UNIT(*)
SI_UNIT(.MILLI.,.METRE.)
);
#203=(
LENGTH_UNIT()
NAMED_UNIT(*)
SI_UNIT(.CENTI.,.METRE.)
);
#204=(
NAMED_UNIT(*)
PLANE_ANGLE_UNIT()
SI_UNIT($,.RADIAN.)
);
#205=(
NAMED_UNIT(*)
SI_UNIT($,.STERADIAN.)
SOLID_ANGLE_UNIT()
);
#206=SHAPE_DEFINITION_REPRESENTATION(#207,#208);
#207=PRODUCT_DEFINITION_SHAPE('',$,#210);
#208=SHAPE_REPRESENTATION('',(#98),#200);
#209=PRODUCT_DEFINITION_CONTEXT('part definition',#214,'design');
#210=PRODUCT_DEFINITION('Parte37','Parte37',#211,#209);
#211=PRODUCT_DEFINITION_FORMATION('',$,#216);
#212=PRODUCT_RELATED_PRODUCT_CATEGORY('Parte37','Parte37',(#216));
#213=APPLICATION_PROTOCOL_DEFINITION('international standard',
'automotive_design',2009,#214);
#214=APPLICATION_CONTEXT(
'Core Data for Automotive Mechanical Design Process');
#215=PRODUCT_CONTEXT('part definition',#214,'mechanical');
#216=PRODUCT('Parte37','Parte37',$,(#215));
#217=PRESENTATION_STYLE_ASSIGNMENT((#220));
#218=PRESENTATION_STYLE_ASSIGNMENT((#221));
#219=PRESENTATION_STYLE_ASSIGNMENT((#222));
#220=SURFACE_STYLE_USAGE(.BOTH.,#229);
#221=SURFACE_STYLE_USAGE(.BOTH.,#230);
#222=SURFACE_STYLE_USAGE(.BOTH.,#231);
#223=SURFACE_STYLE_RENDERING_WITH_PROPERTIES($,#241,(#226));
#224=SURFACE_STYLE_RENDERING_WITH_PROPERTIES($,#242,(#227));
#225=SURFACE_STYLE_RENDERING_WITH_PROPERTIES($,#243,(#228));
#226=SURFACE_STYLE_TRANSPARENT(0.);
#227=SURFACE_STYLE_TRANSPARENT(0.);
#228=SURFACE_STYLE_TRANSPARENT(0.);
#229=SURFACE_SIDE_STYLE('',(#232,#223));
#230=SURFACE_SIDE_STYLE('',(#233,#224));
#231=SURFACE_SIDE_STYLE('',(#234,#225));
#232=SURFACE_STYLE_FILL_AREA(#235);
#233=SURFACE_STYLE_FILL_AREA(#236);
#234=SURFACE_STYLE_FILL_AREA(#237);
#235=FILL_AREA_STYLE('',(#238));
#236=FILL_AREA_STYLE('',(#239));
#237=FILL_AREA_STYLE('',(#240));
#238=FILL_AREA_STYLE_COLOUR('',#241);
#239=FILL_AREA_STYLE_COLOUR('',#242);
#240=FILL_AREA_STYLE_COLOUR('',#243);
#241=COLOUR_RGB('',0.749019607843137,0.749019607843137,0.749019607843137);
#242=COLOUR_RGB('',0.,0.,0.);
#243=COLOUR_RGB('',0.,0.,0.);
ENDSEC;
END-ISO-10303-21;
