ISO-10303-21;
HEADER;
/* Generated by software containing ST-Developer
 * from STEP Tools, Inc. (www.steptools.com) 
 */

FILE_DESCRIPTION(
/* description */ (''),
/* implementation_level */ '2;1');

FILE_NAME(
/* name */ 'C:\\Users\\Stefan.Nesic\\Desktop\\01010STEP\\A2CN24.stp',
/* time_stamp */ '2022-06-23T11:58:23+02:00',
/* author */ ('stefan.nesic'),
/* organization */ (''),
/* preprocessor_version */ 'ST-DEVELOPER v18.1',
/* originating_system */ 'Autodesk Inventor 2021',
/* authorisation */ '');

FILE_SCHEMA (('AUTOMOTIVE_DESIGN { 1 0 10303 214 3 1 1 }'));
ENDSEC;

DATA;
#10=MECHANICAL_DESIGN_GEOMETRIC_PRESENTATION_REPRESENTATION('',(#53,#54,
#55),#166);
#11=SHAPE_REPRESENTATION_RELATIONSHIP('SRR','None',#173,#12);
#12=ADVANCED_BREP_SHAPE_REPRESENTATION('',(#13),#165);
#13=MANIFOLD_SOLID_BREP('Solido1',#60);
#14=FACE_BOUND('',#28,.T.);
#15=LINE('',#161,#16);
#16=VECTOR('',#98,3.);
#17=CYLINDRICAL_SURFACE('',#83,3.);
#18=PLANE('',#81);
#19=PLANE('',#85);
#20=FACE_OUTER_BOUND('',#24,.T.);
#21=FACE_OUTER_BOUND('',#25,.T.);
#22=FACE_OUTER_BOUND('',#26,.T.);
#23=FACE_OUTER_BOUND('',#27,.T.);
#24=EDGE_LOOP('',(#42,#43,#44));
#25=EDGE_LOOP('',(#45));
#26=EDGE_LOOP('',(#46,#47,#48,#49));
#27=EDGE_LOOP('',(#50));
#28=EDGE_LOOP('',(#51));
#29=CIRCLE('',#80,12.5);
#30=CIRCLE('',#82,3.);
#31=CIRCLE('',#84,3.);
#32=B_SPLINE_CURVE_WITH_KNOTS('',4,(#149,#150,#151,#152,#153),
 .UNSPECIFIED.,.F.,.F.,(5,5),(1.,2.),.UNSPECIFIED.);
#33=VERTEX_POINT('',#147);
#34=VERTEX_POINT('',#148);
#35=VERTEX_POINT('',#156);
#36=VERTEX_POINT('',#159);
#37=EDGE_CURVE('',#33,#34,#32,.T.);
#38=EDGE_CURVE('',#34,#34,#29,.T.);
#39=EDGE_CURVE('',#35,#35,#30,.T.);
#40=EDGE_CURVE('',#36,#36,#31,.T.);
#41=EDGE_CURVE('',#36,#35,#15,.T.);
#42=ORIENTED_EDGE('',*,*,#37,.T.);
#43=ORIENTED_EDGE('',*,*,#38,.T.);
#44=ORIENTED_EDGE('',*,*,#37,.F.);
#45=ORIENTED_EDGE('',*,*,#39,.F.);
#46=ORIENTED_EDGE('',*,*,#40,.F.);
#47=ORIENTED_EDGE('',*,*,#41,.T.);
#48=ORIENTED_EDGE('',*,*,#39,.T.);
#49=ORIENTED_EDGE('',*,*,#41,.F.);
#50=ORIENTED_EDGE('',*,*,#38,.F.);
#51=ORIENTED_EDGE('',*,*,#40,.T.);
#52=(
BOUNDED_SURFACE()
B_SPLINE_SURFACE(4,2,((#102,#103,#104,#105,#106,#107,#108,#109,#110),(#111,
#112,#113,#114,#115,#116,#117,#118,#119),(#120,#121,#122,#123,#124,#125,
#126,#127,#128),(#129,#130,#131,#132,#133,#134,#135,#136,#137),(#138,#139,
#140,#141,#142,#143,#144,#145,#146)),.UNSPECIFIED.,.F.,.T.,.F.)
B_SPLINE_SURFACE_WITH_KNOTS((5,5),(3,2,2,2,3),(1.,2.),(0.,1.5707963267949,
3.14159265358979,4.71238898038469,6.28318530717959),.UNSPECIFIED.)
GEOMETRIC_REPRESENTATION_ITEM()
RATIONAL_B_SPLINE_SURFACE(((1.,0.707106781186548,1.,0.707106781186548,1.,
0.707106781186548,1.,0.707106781186548,1.),(1.,0.707106781186548,1.,0.707106781186548,
1.,0.707106781186548,1.,0.707106781186548,1.),(1.,0.707106781186548,1.,
0.707106781186548,1.,0.707106781186548,1.,0.707106781186548,1.),(1.,0.707106781186548,
1.,0.707106781186548,1.,0.707106781186548,1.,0.707106781186548,1.),(1.,
0.707106781186548,1.,0.707106781186548,1.,0.707106781186548,1.,0.707106781186548,
1.)))
REPRESENTATION_ITEM('')
SURFACE()
);
#53=STYLED_ITEM('',(#183),#56);
#54=STYLED_ITEM('',(#184),#59);
#55=STYLED_ITEM('',(#182),#13);
#56=ADVANCED_FACE('',(#20),#52,.T.);
#57=ADVANCED_FACE('',(#21),#18,.T.);
#58=ADVANCED_FACE('',(#22),#17,.T.);
#59=ADVANCED_FACE('',(#23,#14),#19,.T.);
#60=CLOSED_SHELL('',(#56,#57,#58,#59));
#61=DERIVED_UNIT_ELEMENT(#63,1.);
#62=DERIVED_UNIT_ELEMENT(#168,-3.);
#63=(
MASS_UNIT()
NAMED_UNIT(*)
SI_UNIT($,.GRAM.)
);
#64=DERIVED_UNIT((#61,#62));
#65=MEASURE_REPRESENTATION_ITEM('density measure',
POSITIVE_RATIO_MEASURE(1.),#64);
#66=PROPERTY_DEFINITION_REPRESENTATION(#71,#68);
#67=PROPERTY_DEFINITION_REPRESENTATION(#72,#69);
#68=REPRESENTATION('material name',(#70),#165);
#69=REPRESENTATION('density',(#65),#165);
#70=DESCRIPTIVE_REPRESENTATION_ITEM('Generico','Generico');
#71=PROPERTY_DEFINITION('material property','material name',#175);
#72=PROPERTY_DEFINITION('material property','density of part',#175);
#73=DATE_TIME_ROLE('creation_date');
#74=APPLIED_DATE_AND_TIME_ASSIGNMENT(#75,#73,(#175));
#75=DATE_AND_TIME(#76,#77);
#76=CALENDAR_DATE(2022,23,6);
#77=LOCAL_TIME(0,0,0.,#78);
#78=COORDINATED_UNIVERSAL_TIME_OFFSET(0,0,.BEHIND.);
#79=AXIS2_PLACEMENT_3D('placement',#101,#86,#87);
#80=AXIS2_PLACEMENT_3D('',#154,#88,#89);
#81=AXIS2_PLACEMENT_3D('',#155,#90,#91);
#82=AXIS2_PLACEMENT_3D('',#157,#92,#93);
#83=AXIS2_PLACEMENT_3D('',#158,#94,#95);
#84=AXIS2_PLACEMENT_3D('',#160,#96,#97);
#85=AXIS2_PLACEMENT_3D('',#162,#99,#100);
#86=DIRECTION('axis',(0.,0.,1.));
#87=DIRECTION('refdir',(1.,0.,0.));
#88=DIRECTION('center_axis',(-2.77555756156289E-17,1.,0.));
#89=DIRECTION('ref_axis',(1.,2.77555756156289E-17,0.));
#90=DIRECTION('center_axis',(2.77555756156289E-17,-1.,0.));
#91=DIRECTION('ref_axis',(0.,0.,-1.));
#92=DIRECTION('center_axis',(-2.77555756156289E-17,1.,0.));
#93=DIRECTION('ref_axis',(1.,2.77555756156289E-17,0.));
#94=DIRECTION('center_axis',(-2.77555756156289E-17,1.,0.));
#95=DIRECTION('ref_axis',(-1.,-2.77555756156289E-17,0.));
#96=DIRECTION('center_axis',(-2.77555756156289E-17,1.,0.));
#97=DIRECTION('ref_axis',(1.,2.77555756156289E-17,0.));
#98=DIRECTION('',(2.77555756156289E-17,-1.,0.));
#99=DIRECTION('center_axis',(2.77555756156289E-17,-1.,0.));
#100=DIRECTION('ref_axis',(0.,0.,-1.));
#101=CARTESIAN_POINT('',(0.,0.,0.));
#102=CARTESIAN_POINT('Ctrl Pts',(0.,22.,0.));
#103=CARTESIAN_POINT('Ctrl Pts',(-1.23259516440783E-31,22.,-6.10622663543836E-16));
#104=CARTESIAN_POINT('Ctrl Pts',(-6.10622663543836E-16,22.,-6.10622663543836E-16));
#105=CARTESIAN_POINT('Ctrl Pts',(-1.22124532708767E-15,22.,-6.10622663543836E-16));
#106=CARTESIAN_POINT('Ctrl Pts',(-1.22124532708767E-15,22.,0.));
#107=CARTESIAN_POINT('Ctrl Pts',(-1.22124532708767E-15,22.,6.10622663543836E-16));
#108=CARTESIAN_POINT('Ctrl Pts',(-6.10622663543836E-16,22.,6.10622663543836E-16));
#109=CARTESIAN_POINT('Ctrl Pts',(-1.23259516440783E-31,22.,6.10622663543836E-16));
#110=CARTESIAN_POINT('Ctrl Pts',(0.,22.,0.));
#111=CARTESIAN_POINT('Ctrl Pts',(-2.53456821541421,22.,0.));
#112=CARTESIAN_POINT('Ctrl Pts',(-2.53456821541421,22.,2.53456821541421));
#113=CARTESIAN_POINT('Ctrl Pts',(-6.10622663543836E-16,22.,2.53456821541421));
#114=CARTESIAN_POINT('Ctrl Pts',(2.53456821541421,22.,2.53456821541421));
#115=CARTESIAN_POINT('Ctrl Pts',(2.53456821541421,22.,0.));
#116=CARTESIAN_POINT('Ctrl Pts',(2.53456821541421,22.,-2.53456821541421));
#117=CARTESIAN_POINT('Ctrl Pts',(-6.10622663543836E-16,22.,-2.53456821541421));
#118=CARTESIAN_POINT('Ctrl Pts',(-2.53456821541421,22.,-2.53456821541421));
#119=CARTESIAN_POINT('Ctrl Pts',(-2.53456821541421,22.,0.));
#120=CARTESIAN_POINT('Ctrl Pts',(-5.55985568028645,19.3161031827682,0.));
#121=CARTESIAN_POINT('Ctrl Pts',(-5.55985568028645,19.3161031827682,5.55985568028645));
#122=CARTESIAN_POINT('Ctrl Pts',(-5.36129562488613E-16,19.3161031827682,
5.55985568028645));
#123=CARTESIAN_POINT('Ctrl Pts',(5.55985568028645,19.3161031827682,5.55985568028645));
#124=CARTESIAN_POINT('Ctrl Pts',(5.55985568028645,19.3161031827682,0.));
#125=CARTESIAN_POINT('Ctrl Pts',(5.55985568028645,19.3161031827682,-5.55985568028645));
#126=CARTESIAN_POINT('Ctrl Pts',(-5.36129562488613E-16,19.3161031827682,
-5.55985568028645));
#127=CARTESIAN_POINT('Ctrl Pts',(-5.55985568028645,19.3161031827682,-5.55985568028645));
#128=CARTESIAN_POINT('Ctrl Pts',(-5.55985568028645,19.3161031827682,0.));
#129=CARTESIAN_POINT('Ctrl Pts',(-8.38519973865903,15.2442518304574,0.));
#130=CARTESIAN_POINT('Ctrl Pts',(-8.38519973865903,15.2442518304574,8.38519973865903));
#131=CARTESIAN_POINT('Ctrl Pts',(-4.2311298438395E-16,15.2442518304574,
8.38519973865903));
#132=CARTESIAN_POINT('Ctrl Pts',(8.38519973865903,15.2442518304574,8.38519973865903));
#133=CARTESIAN_POINT('Ctrl Pts',(8.38519973865903,15.2442518304574,0.));
#134=CARTESIAN_POINT('Ctrl Pts',(8.38519973865903,15.2442518304574,-8.38519973865903));
#135=CARTESIAN_POINT('Ctrl Pts',(-4.2311298438395E-16,15.2442518304574,
-8.38519973865903));
#136=CARTESIAN_POINT('Ctrl Pts',(-8.38519973865903,15.2442518304574,-8.38519973865903));
#137=CARTESIAN_POINT('Ctrl Pts',(-8.38519973865903,15.2442518304574,0.));
#138=CARTESIAN_POINT('Ctrl Pts',(-12.5,-2.22044604925031E-15,0.));
#139=CARTESIAN_POINT('Ctrl Pts',(-12.5,-2.22044604925031E-15,12.5));
#140=CARTESIAN_POINT('Ctrl Pts',(5.20001084984554E-32,-1.87350135405495E-15,
12.5));
#141=CARTESIAN_POINT('Ctrl Pts',(12.5,-1.52655665885959E-15,12.5));
#142=CARTESIAN_POINT('Ctrl Pts',(12.5,-1.52655665885959E-15,0.));
#143=CARTESIAN_POINT('Ctrl Pts',(12.5,-1.52655665885959E-15,-12.5));
#144=CARTESIAN_POINT('Ctrl Pts',(5.20001084984554E-32,-1.87350135405495E-15,
-12.5));
#145=CARTESIAN_POINT('Ctrl Pts',(-12.5,-2.22044604925031E-15,-12.5));
#146=CARTESIAN_POINT('Ctrl Pts',(-12.5,-2.22044604925031E-15,0.));
#147=CARTESIAN_POINT('',(0.,22.,0.));
#148=CARTESIAN_POINT('',(-12.5,-2.22044604925031E-15,0.));
#149=CARTESIAN_POINT('Ctrl Pts',(0.,22.,0.));
#150=CARTESIAN_POINT('Ctrl Pts',(-2.53456821541421,22.,0.));
#151=CARTESIAN_POINT('Ctrl Pts',(-5.55985568028645,19.3161031827682,0.));
#152=CARTESIAN_POINT('Ctrl Pts',(-8.38519973865903,15.2442518304574,0.));
#153=CARTESIAN_POINT('Ctrl Pts',(-12.5,-2.22044604925031E-15,0.));
#154=CARTESIAN_POINT('Origin',(5.20001084984554E-32,-1.87350135405495E-15,
0.));
#155=CARTESIAN_POINT('Origin',(-3.,-20.,0.));
#156=CARTESIAN_POINT('',(3.,-20.,-3.67394039744206E-16));
#157=CARTESIAN_POINT('Origin',(5.55111512312578E-16,-20.,0.));
#158=CARTESIAN_POINT('Origin',(2.77555756156289E-16,-10.,0.));
#159=CARTESIAN_POINT('',(3.,0.,-3.67394039744206E-16));
#160=CARTESIAN_POINT('Origin',(7.886117117587E-33,-2.84127312897319E-16,
0.));
#161=CARTESIAN_POINT('',(3.,-10.,-3.67394039744206E-16));
#162=CARTESIAN_POINT('Origin',(-12.5,-2.22044604925031E-15,0.));
#163=UNCERTAINTY_MEASURE_WITH_UNIT(LENGTH_MEASURE(0.01),#167,
'DISTANCE_ACCURACY_VALUE',
'Maximum model space distance between geometric entities at asserted c
onnectivities');
#164=UNCERTAINTY_MEASURE_WITH_UNIT(LENGTH_MEASURE(0.01),#167,
'DISTANCE_ACCURACY_VALUE',
'Maximum model space distance between geometric entities at asserted c
onnectivities');
#165=(
GEOMETRIC_REPRESENTATION_CONTEXT(3)
GLOBAL_UNCERTAINTY_ASSIGNED_CONTEXT((#163))
GLOBAL_UNIT_ASSIGNED_CONTEXT((#167,#169,#170))
REPRESENTATION_CONTEXT('','3D')
);
#166=(
GEOMETRIC_REPRESENTATION_CONTEXT(3)
GLOBAL_UNCERTAINTY_ASSIGNED_CONTEXT((#164))
GLOBAL_UNIT_ASSIGNED_CONTEXT((#167,#169,#170))
REPRESENTATION_CONTEXT('','3D')
);
#167=(
LENGTH_UNIT()
NAMED_UNIT(*)
SI_UNIT(.MILLI.,.METRE.)
);
#168=(
LENGTH_UNIT()
NAMED_UNIT(*)
SI_UNIT(.CENTI.,.METRE.)
);
#169=(
NAMED_UNIT(*)
PLANE_ANGLE_UNIT()
SI_UNIT($,.RADIAN.)
);
#170=(
NAMED_UNIT(*)
SI_UNIT($,.STERADIAN.)
SOLID_ANGLE_UNIT()
);
#171=SHAPE_DEFINITION_REPRESENTATION(#172,#173);
#172=PRODUCT_DEFINITION_SHAPE('',$,#175);
#173=SHAPE_REPRESENTATION('',(#79),#165);
#174=PRODUCT_DEFINITION_CONTEXT('part definition',#179,'design');
#175=PRODUCT_DEFINITION('Parte80','Parte80',#176,#174);
#176=PRODUCT_DEFINITION_FORMATION('',$,#181);
#177=PRODUCT_RELATED_PRODUCT_CATEGORY('Parte80','Parte80',(#181));
#178=APPLICATION_PROTOCOL_DEFINITION('international standard',
'automotive_design',2009,#179);
#179=APPLICATION_CONTEXT(
'Core Data for Automotive Mechanical Design Process');
#180=PRODUCT_CONTEXT('part definition',#179,'mechanical');
#181=PRODUCT('Parte80','Parte80',$,(#180));
#182=PRESENTATION_STYLE_ASSIGNMENT((#185));
#183=PRESENTATION_STYLE_ASSIGNMENT((#186));
#184=PRESENTATION_STYLE_ASSIGNMENT((#187));
#185=SURFACE_STYLE_USAGE(.BOTH.,#194);
#186=SURFACE_STYLE_USAGE(.BOTH.,#195);
#187=SURFACE_STYLE_USAGE(.BOTH.,#196);
#188=SURFACE_STYLE_RENDERING_WITH_PROPERTIES($,#206,(#191));
#189=SURFACE_STYLE_RENDERING_WITH_PROPERTIES($,#207,(#192));
#190=SURFACE_STYLE_RENDERING_WITH_PROPERTIES($,#208,(#193));
#191=SURFACE_STYLE_TRANSPARENT(0.);
#192=SURFACE_STYLE_TRANSPARENT(0.);
#193=SURFACE_STYLE_TRANSPARENT(0.);
#194=SURFACE_SIDE_STYLE('',(#197,#188));
#195=SURFACE_SIDE_STYLE('',(#198,#189));
#196=SURFACE_SIDE_STYLE('',(#199,#190));
#197=SURFACE_STYLE_FILL_AREA(#200);
#198=SURFACE_STYLE_FILL_AREA(#201);
#199=SURFACE_STYLE_FILL_AREA(#202);
#200=FILL_AREA_STYLE('',(#203));
#201=FILL_AREA_STYLE('',(#204));
#202=FILL_AREA_STYLE('',(#205));
#203=FILL_AREA_STYLE_COLOUR('',#206);
#204=FILL_AREA_STYLE_COLOUR('',#207);
#205=FILL_AREA_STYLE_COLOUR('',#208);
#206=COLOUR_RGB('',0.749019607843137,0.749019607843137,0.749019607843137);
#207=COLOUR_RGB('',0.,0.,0.);
#208=COLOUR_RGB('',0.,0.,0.);
ENDSEC;
END-ISO-10303-21;
