ISO-10303-21;
HEADER;
/* Generated by software containing ST-Developer
 * from STEP Tools, Inc. (www.steptools.com) 
 */

FILE_DESCRIPTION(
/* description */ (''),
/* implementation_level */ '2;1');

FILE_NAME(
/* name */ 
'C:\\Users\\Stefan.Nesic\\Desktop\\01010 STEP da zippare\\A1PM4040.8.s
tp',
/* time_stamp */ '2022-06-17T12:05:22+02:00',
/* author */ (''),
/* organization */ (''),
/* preprocessor_version */ 'ST-DEVELOPER v18.1',
/* originating_system */ 'Autodesk Inventor 2021',
/* authorisation */ '');

FILE_SCHEMA (('AUTOMOTIVE_DESIGN { 1 0 10303 214 3 1 1 }'));
ENDSEC;

DATA;
#10=MECHANICAL_DESIGN_GEOMETRIC_PRESENTATION_REPRESENTATION('',(#14,#15,
#16),#174);
#11=SHAPE_REPRESENTATION_RELATIONSHIP('SRR','None',#181,#12);
#12=ADVANCED_BREP_SHAPE_REPRESENTATION('',(#13),#173);
#13=MANIFOLD_SOLID_BREP('Solido1',#88);
#14=STYLED_ITEM('',(#191),#86);
#15=STYLED_ITEM('',(#191),#87);
#16=STYLED_ITEM('',(#190),#13);
#17=FACE_BOUND('',#33,.T.);
#18=CYLINDRICAL_SURFACE('',#113,4.);
#19=CYLINDRICAL_SURFACE('',#117,20.);
#20=PLANE('',#112);
#21=PLANE('',#115);
#22=PLANE('',#119);
#23=FACE_OUTER_BOUND('',#29,.T.);
#24=FACE_OUTER_BOUND('',#30,.T.);
#25=FACE_OUTER_BOUND('',#31,.T.);
#26=FACE_OUTER_BOUND('',#32,.T.);
#27=FACE_OUTER_BOUND('',#34,.T.);
#28=FACE_OUTER_BOUND('',#35,.T.);
#29=EDGE_LOOP('',(#63,#64,#65,#66,#67));
#30=EDGE_LOOP('',(#68));
#31=EDGE_LOOP('',(#69,#70,#71,#72,#73));
#32=EDGE_LOOP('',(#74));
#33=EDGE_LOOP('',(#75));
#34=EDGE_LOOP('',(#76,#77,#78,#79));
#35=EDGE_LOOP('',(#80));
#36=LINE('',#156,#39);
#37=LINE('',#162,#40);
#38=LINE('',#169,#41);
#39=VECTOR('',#128,3.75);
#40=VECTOR('',#137,4.);
#41=VECTOR('',#146,20.);
#42=CIRCLE('',#109,4.);
#43=CIRCLE('',#110,4.);
#44=CIRCLE('',#111,3.5);
#45=CIRCLE('',#114,4.);
#46=CIRCLE('',#116,20.);
#47=CIRCLE('',#118,20.);
#48=VERTEX_POINT('',#151);
#49=VERTEX_POINT('',#152);
#50=VERTEX_POINT('',#155);
#51=VERTEX_POINT('',#160);
#52=VERTEX_POINT('',#164);
#53=VERTEX_POINT('',#167);
#54=EDGE_CURVE('',#48,#49,#42,.T.);
#55=EDGE_CURVE('',#49,#48,#43,.T.);
#56=EDGE_CURVE('',#48,#50,#36,.T.);
#57=EDGE_CURVE('',#50,#50,#44,.T.);
#58=EDGE_CURVE('',#51,#51,#45,.T.);
#59=EDGE_CURVE('',#51,#49,#37,.T.);
#60=EDGE_CURVE('',#52,#52,#46,.T.);
#61=EDGE_CURVE('',#53,#53,#47,.T.);
#62=EDGE_CURVE('',#53,#52,#38,.T.);
#63=ORIENTED_EDGE('',*,*,#54,.T.);
#64=ORIENTED_EDGE('',*,*,#55,.T.);
#65=ORIENTED_EDGE('',*,*,#56,.T.);
#66=ORIENTED_EDGE('',*,*,#57,.T.);
#67=ORIENTED_EDGE('',*,*,#56,.F.);
#68=ORIENTED_EDGE('',*,*,#57,.F.);
#69=ORIENTED_EDGE('',*,*,#58,.F.);
#70=ORIENTED_EDGE('',*,*,#59,.T.);
#71=ORIENTED_EDGE('',*,*,#54,.F.);
#72=ORIENTED_EDGE('',*,*,#55,.F.);
#73=ORIENTED_EDGE('',*,*,#59,.F.);
#74=ORIENTED_EDGE('',*,*,#60,.F.);
#75=ORIENTED_EDGE('',*,*,#58,.T.);
#76=ORIENTED_EDGE('',*,*,#61,.F.);
#77=ORIENTED_EDGE('',*,*,#62,.T.);
#78=ORIENTED_EDGE('',*,*,#60,.T.);
#79=ORIENTED_EDGE('',*,*,#62,.F.);
#80=ORIENTED_EDGE('',*,*,#61,.T.);
#81=CONICAL_SURFACE('',#108,3.75,0.785398163397448);
#82=ADVANCED_FACE('',(#23),#81,.T.);
#83=ADVANCED_FACE('',(#24),#20,.T.);
#84=ADVANCED_FACE('',(#25),#18,.T.);
#85=ADVANCED_FACE('',(#26,#17),#21,.T.);
#86=ADVANCED_FACE('',(#27),#19,.T.);
#87=ADVANCED_FACE('',(#28),#22,.T.);
#88=CLOSED_SHELL('',(#82,#83,#84,#85,#86,#87));
#89=DERIVED_UNIT_ELEMENT(#91,1.);
#90=DERIVED_UNIT_ELEMENT(#176,-3.);
#91=(
MASS_UNIT()
NAMED_UNIT(*)
SI_UNIT($,.GRAM.)
);
#92=DERIVED_UNIT((#89,#90));
#93=MEASURE_REPRESENTATION_ITEM('density measure',
POSITIVE_RATIO_MEASURE(1.),#92);
#94=PROPERTY_DEFINITION_REPRESENTATION(#99,#96);
#95=PROPERTY_DEFINITION_REPRESENTATION(#100,#97);
#96=REPRESENTATION('material name',(#98),#173);
#97=REPRESENTATION('density',(#93),#173);
#98=DESCRIPTIVE_REPRESENTATION_ITEM('Generico','Generico');
#99=PROPERTY_DEFINITION('material property','material name',#183);
#100=PROPERTY_DEFINITION('material property','density of part',#183);
#101=DATE_TIME_ROLE('creation_date');
#102=APPLIED_DATE_AND_TIME_ASSIGNMENT(#103,#101,(#183));
#103=DATE_AND_TIME(#104,#105);
#104=CALENDAR_DATE(2016,31,3);
#105=LOCAL_TIME(0,0,0.,#106);
#106=COORDINATED_UNIVERSAL_TIME_OFFSET(0,0,.BEHIND.);
#107=AXIS2_PLACEMENT_3D('placement',#149,#120,#121);
#108=AXIS2_PLACEMENT_3D('',#150,#122,#123);
#109=AXIS2_PLACEMENT_3D('',#153,#124,#125);
#110=AXIS2_PLACEMENT_3D('',#154,#126,#127);
#111=AXIS2_PLACEMENT_3D('',#157,#129,#130);
#112=AXIS2_PLACEMENT_3D('',#158,#131,#132);
#113=AXIS2_PLACEMENT_3D('',#159,#133,#134);
#114=AXIS2_PLACEMENT_3D('',#161,#135,#136);
#115=AXIS2_PLACEMENT_3D('',#163,#138,#139);
#116=AXIS2_PLACEMENT_3D('',#165,#140,#141);
#117=AXIS2_PLACEMENT_3D('',#166,#142,#143);
#118=AXIS2_PLACEMENT_3D('',#168,#144,#145);
#119=AXIS2_PLACEMENT_3D('',#170,#147,#148);
#120=DIRECTION('axis',(0.,0.,1.));
#121=DIRECTION('refdir',(1.,0.,0.));
#122=DIRECTION('center_axis',(1.,1.76225876924628E-16,0.));
#123=DIRECTION('ref_axis',(8.22387425648264E-17,-1.,0.));
#124=DIRECTION('center_axis',(-1.,-1.76225876924628E-16,0.));
#125=DIRECTION('ref_axis',(0.,-1.,0.));
#126=DIRECTION('center_axis',(-1.,-1.76225876924628E-16,0.));
#127=DIRECTION('ref_axis',(0.,-1.,0.));
#128=DIRECTION('',(-0.707106781186547,-0.707106781186548,-8.65956056235493E-17));
#129=DIRECTION('center_axis',(1.,1.76225876924628E-16,0.));
#130=DIRECTION('ref_axis',(1.76225876924628E-16,-1.,0.));
#131=DIRECTION('center_axis',(-1.,-1.76225876924628E-16,0.));
#132=DIRECTION('ref_axis',(0.,0.,1.));
#133=DIRECTION('center_axis',(1.,1.76225876924628E-16,0.));
#134=DIRECTION('ref_axis',(0.,1.,0.));
#135=DIRECTION('center_axis',(1.,1.76225876924628E-16,0.));
#136=DIRECTION('ref_axis',(0.,0.,-1.));
#137=DIRECTION('',(-1.,-1.76225876924628E-16,0.));
#138=DIRECTION('center_axis',(-1.,-1.76225876924628E-16,0.));
#139=DIRECTION('ref_axis',(0.,0.,1.));
#140=DIRECTION('center_axis',(1.,1.76225876924628E-16,0.));
#141=DIRECTION('ref_axis',(0.,0.,-1.));
#142=DIRECTION('center_axis',(1.,1.76225876924628E-16,0.));
#143=DIRECTION('ref_axis',(-1.76225876924628E-16,1.,0.));
#144=DIRECTION('center_axis',(1.,1.76225876924628E-16,0.));
#145=DIRECTION('ref_axis',(0.,0.,-1.));
#146=DIRECTION('',(-1.,-1.76225876924628E-16,0.));
#147=DIRECTION('center_axis',(1.,1.76225876924628E-16,0.));
#148=DIRECTION('ref_axis',(0.,0.,-1.));
#149=CARTESIAN_POINT('',(0.,0.,0.));
#150=CARTESIAN_POINT('Origin',(-22.75,-4.39683562926947E-15,0.));
#151=CARTESIAN_POINT('',(-22.5,4.,-4.89858719658941E-16));
#152=CARTESIAN_POINT('',(-22.5,-4.,-4.89858719658941E-16));
#153=CARTESIAN_POINT('Origin',(-22.5,-4.35277916003831E-15,0.));
#154=CARTESIAN_POINT('Origin',(-22.5,-4.35277916003831E-15,0.));
#155=CARTESIAN_POINT('',(-23.,3.5,4.28626379701574E-16));
#156=CARTESIAN_POINT('',(-22.75,3.75,4.59242549680258E-16));
#157=CARTESIAN_POINT('Origin',(-23.,-4.44089209850063E-15,0.));
#158=CARTESIAN_POINT('Origin',(-23.,4.,0.));
#159=CARTESIAN_POINT('Origin',(-11.5,-2.4142945138674E-15,0.));
#160=CARTESIAN_POINT('',(2.22044604925031E-15,-4.,-4.89858719658941E-16));
#161=CARTESIAN_POINT('Origin',(7.04903507698512E-16,-3.87696929234181E-16,
0.));
#162=CARTESIAN_POINT('',(-11.5,-4.,-4.89858719658941E-16));
#163=CARTESIAN_POINT('Origin',(0.,20.,0.));
#164=CARTESIAN_POINT('',(8.88178419700125E-15,-20.,-2.44929359829471E-15));
#165=CARTESIAN_POINT('Origin',(4.44089209850063E-15,-3.8769692923418E-16,
0.));
#166=CARTESIAN_POINT('Origin',(20.,3.13682060925838E-15,0.));
#167=CARTESIAN_POINT('',(40.,-20.,-2.44929359829471E-15));
#168=CARTESIAN_POINT('Origin',(40.,6.66133814775094E-15,0.));
#169=CARTESIAN_POINT('',(20.,-20.,-2.44929359829471E-15));
#170=CARTESIAN_POINT('Origin',(40.,6.66133814775094E-15,0.));
#171=UNCERTAINTY_MEASURE_WITH_UNIT(LENGTH_MEASURE(0.01),#175,
'DISTANCE_ACCURACY_VALUE',
'Maximum model space distance between geometric entities at asserted c
onnectivities');
#172=UNCERTAINTY_MEASURE_WITH_UNIT(LENGTH_MEASURE(0.01),#175,
'DISTANCE_ACCURACY_VALUE',
'Maximum model space distance between geometric entities at asserted c
onnectivities');
#173=(
GEOMETRIC_REPRESENTATION_CONTEXT(3)
GLOBAL_UNCERTAINTY_ASSIGNED_CONTEXT((#171))
GLOBAL_UNIT_ASSIGNED_CONTEXT((#175,#177,#178))
REPRESENTATION_CONTEXT('','3D')
);
#174=(
GEOMETRIC_REPRESENTATION_CONTEXT(3)
GLOBAL_UNCERTAINTY_ASSIGNED_CONTEXT((#172))
GLOBAL_UNIT_ASSIGNED_CONTEXT((#175,#177,#178))
REPRESENTATION_CONTEXT('','3D')
);
#175=(
LENGTH_UNIT()
NAMED_UNIT(*)
SI_UNIT(.MILLI.,.METRE.)
);
#176=(
LENGTH_UNIT()
NAMED_UNIT(*)
SI_UNIT(.CENTI.,.METRE.)
);
#177=(
NAMED_UNIT(*)
PLANE_ANGLE_UNIT()
SI_UNIT($,.RADIAN.)
);
#178=(
NAMED_UNIT(*)
SI_UNIT($,.STERADIAN.)
SOLID_ANGLE_UNIT()
);
#179=SHAPE_DEFINITION_REPRESENTATION(#180,#181);
#180=PRODUCT_DEFINITION_SHAPE('',$,#183);
#181=SHAPE_REPRESENTATION('',(#107),#173);
#182=PRODUCT_DEFINITION_CONTEXT('part definition',#187,'design');
#183=PRODUCT_DEFINITION('A1PM4040.8','A1PM4040.8',#184,#182);
#184=PRODUCT_DEFINITION_FORMATION('A00',$,#189);
#185=PRODUCT_RELATED_PRODUCT_CATEGORY('A1PM4040.8','A1PM4040.8',(#189));
#186=APPLICATION_PROTOCOL_DEFINITION('international standard',
'automotive_design',2009,#187);
#187=APPLICATION_CONTEXT(
'Core Data for Automotive Mechanical Design Process');
#188=PRODUCT_CONTEXT('part definition',#187,'mechanical');
#189=PRODUCT('A1PM4040.8','A1PM4040.8',$,(#188));
#190=PRESENTATION_STYLE_ASSIGNMENT((#192));
#191=PRESENTATION_STYLE_ASSIGNMENT((#193));
#192=SURFACE_STYLE_USAGE(.BOTH.,#198);
#193=SURFACE_STYLE_USAGE(.BOTH.,#199);
#194=SURFACE_STYLE_RENDERING_WITH_PROPERTIES($,#206,(#196));
#195=SURFACE_STYLE_RENDERING_WITH_PROPERTIES($,#207,(#197));
#196=SURFACE_STYLE_TRANSPARENT(0.);
#197=SURFACE_STYLE_TRANSPARENT(0.);
#198=SURFACE_SIDE_STYLE('',(#200,#194));
#199=SURFACE_SIDE_STYLE('',(#201,#195));
#200=SURFACE_STYLE_FILL_AREA(#202);
#201=SURFACE_STYLE_FILL_AREA(#203);
#202=FILL_AREA_STYLE('',(#204));
#203=FILL_AREA_STYLE('',(#205));
#204=FILL_AREA_STYLE_COLOUR('',#206);
#205=FILL_AREA_STYLE_COLOUR('',#207);
#206=COLOUR_RGB('',0.749019607843137,0.749019607843137,0.749019607843137);
#207=COLOUR_RGB('',0.,0.,0.);
ENDSEC;
END-ISO-10303-21;
