ISO-10303-21;
HEADER;
/* Generated by software containing ST-Developer
 * from STEP Tools, Inc. (www.steptools.com) 
 */

FILE_DESCRIPTION(
/* description */ ('Puffer cilindrico A1PM 30X20 M8X20 60 SH'),
/* implementation_level */ '2;1');

FILE_NAME(
/* name */ 
'C:\\Users\\Stefan.Nesic\\Desktop\\01010 STEP da zippare\\A1PM3020.stp',

/* time_stamp */ '2022-06-17T12:04:47+02:00',
/* author */ ('davide.cavedon'),
/* organization */ (''),
/* preprocessor_version */ 'ST-DEVELOPER v18.1',
/* originating_system */ 'Autodesk Inventor 2021',
/* authorisation */ '');

FILE_SCHEMA (('AUTOMOTIVE_DESIGN { 1 0 10303 214 3 1 1 }'));
ENDSEC;

DATA;
#10=MECHANICAL_DESIGN_GEOMETRIC_PRESENTATION_REPRESENTATION('',(#87,#88,
#89,#90),#190);
#11=SHAPE_REPRESENTATION_RELATIONSHIP('SRR','None',#197,#12);
#12=ADVANCED_BREP_SHAPE_REPRESENTATION('',(#13),#189);
#13=MANIFOLD_SOLID_BREP('Solido2',#98);
#14=FACE_BOUND('',#34,.T.);
#15=PLANE('',#123);
#16=PLANE('',#129);
#17=PLANE('',#130);
#18=CYLINDRICAL_SURFACE('',#121,4.);
#19=CYLINDRICAL_SURFACE('',#127,15.);
#20=FACE_OUTER_BOUND('',#27,.T.);
#21=FACE_OUTER_BOUND('',#28,.T.);
#22=FACE_OUTER_BOUND('',#29,.T.);
#23=FACE_OUTER_BOUND('',#30,.T.);
#24=FACE_OUTER_BOUND('',#31,.T.);
#25=FACE_OUTER_BOUND('',#32,.T.);
#26=FACE_OUTER_BOUND('',#33,.T.);
#27=EDGE_LOOP('',(#65,#66,#67,#68));
#28=EDGE_LOOP('',(#69,#70,#71,#72));
#29=EDGE_LOOP('',(#73));
#30=EDGE_LOOP('',(#74,#75,#76,#77));
#31=EDGE_LOOP('',(#78,#79,#80,#81));
#32=EDGE_LOOP('',(#82));
#33=EDGE_LOOP('',(#83));
#34=EDGE_LOOP('',(#84));
#35=LINE('',#168,#39);
#36=LINE('',#172,#40);
#37=LINE('',#179,#41);
#38=LINE('',#183,#42);
#39=VECTOR('',#137,3.75);
#40=VECTOR('',#142,4.);
#41=VECTOR('',#151,14.5);
#42=VECTOR('',#156,15.);
#43=CIRCLE('',#119,4.);
#44=CIRCLE('',#120,3.5);
#45=CIRCLE('',#122,4.);
#46=CIRCLE('',#125,15.);
#47=CIRCLE('',#126,14.);
#48=CIRCLE('',#128,15.);
#49=VERTEX_POINT('',#165);
#50=VERTEX_POINT('',#167);
#51=VERTEX_POINT('',#171);
#52=VERTEX_POINT('',#176);
#53=VERTEX_POINT('',#178);
#54=VERTEX_POINT('',#182);
#55=EDGE_CURVE('',#49,#49,#43,.T.);
#56=EDGE_CURVE('',#49,#50,#35,.T.);
#57=EDGE_CURVE('',#50,#50,#44,.T.);
#58=EDGE_CURVE('',#49,#51,#36,.T.);
#59=EDGE_CURVE('',#51,#51,#45,.T.);
#60=EDGE_CURVE('',#52,#52,#46,.T.);
#61=EDGE_CURVE('',#52,#53,#37,.T.);
#62=EDGE_CURVE('',#53,#53,#47,.T.);
#63=EDGE_CURVE('',#52,#54,#38,.T.);
#64=EDGE_CURVE('',#54,#54,#48,.T.);
#65=ORIENTED_EDGE('',*,*,#55,.T.);
#66=ORIENTED_EDGE('',*,*,#56,.T.);
#67=ORIENTED_EDGE('',*,*,#57,.T.);
#68=ORIENTED_EDGE('',*,*,#56,.F.);
#69=ORIENTED_EDGE('',*,*,#55,.F.);
#70=ORIENTED_EDGE('',*,*,#58,.T.);
#71=ORIENTED_EDGE('',*,*,#59,.F.);
#72=ORIENTED_EDGE('',*,*,#58,.F.);
#73=ORIENTED_EDGE('',*,*,#57,.F.);
#74=ORIENTED_EDGE('',*,*,#60,.T.);
#75=ORIENTED_EDGE('',*,*,#61,.T.);
#76=ORIENTED_EDGE('',*,*,#62,.T.);
#77=ORIENTED_EDGE('',*,*,#61,.F.);
#78=ORIENTED_EDGE('',*,*,#60,.F.);
#79=ORIENTED_EDGE('',*,*,#63,.T.);
#80=ORIENTED_EDGE('',*,*,#64,.F.);
#81=ORIENTED_EDGE('',*,*,#63,.F.);
#82=ORIENTED_EDGE('',*,*,#62,.F.);
#83=ORIENTED_EDGE('',*,*,#64,.T.);
#84=ORIENTED_EDGE('',*,*,#59,.T.);
#85=CONICAL_SURFACE('',#118,3.75,0.785398163397448);
#86=CONICAL_SURFACE('',#124,14.5,0.785398163397448);
#87=STYLED_ITEM('',(#208),#91);
#88=STYLED_ITEM('',(#208),#92);
#89=STYLED_ITEM('',(#208),#93);
#90=STYLED_ITEM('',(#207),#13);
#91=ADVANCED_FACE('',(#20),#85,.T.);
#92=ADVANCED_FACE('',(#21),#18,.T.);
#93=ADVANCED_FACE('',(#22),#15,.F.);
#94=ADVANCED_FACE('',(#23),#86,.T.);
#95=ADVANCED_FACE('',(#24),#19,.T.);
#96=ADVANCED_FACE('',(#25),#16,.F.);
#97=ADVANCED_FACE('',(#26,#14),#17,.T.);
#98=CLOSED_SHELL('',(#91,#92,#93,#94,#95,#96,#97));
#99=DERIVED_UNIT_ELEMENT(#101,1.);
#100=DERIVED_UNIT_ELEMENT(#192,-3.);
#101=(
MASS_UNIT()
NAMED_UNIT(*)
SI_UNIT($,.GRAM.)
);
#102=DERIVED_UNIT((#99,#100));
#103=MEASURE_REPRESENTATION_ITEM('density measure',
POSITIVE_RATIO_MEASURE(0.93),#102);
#104=PROPERTY_DEFINITION_REPRESENTATION(#109,#106);
#105=PROPERTY_DEFINITION_REPRESENTATION(#110,#107);
#106=REPRESENTATION('material name',(#108),#189);
#107=REPRESENTATION('density',(#103),#189);
#108=DESCRIPTIVE_REPRESENTATION_ITEM('Gomma','Gomma');
#109=PROPERTY_DEFINITION('material property','material name',#199);
#110=PROPERTY_DEFINITION('material property','density of part',#199);
#111=DATE_TIME_ROLE('creation_date');
#112=APPLIED_DATE_AND_TIME_ASSIGNMENT(#113,#111,(#199));
#113=DATE_AND_TIME(#114,#115);
#114=CALENDAR_DATE(2017,7,8);
#115=LOCAL_TIME(0,0,0.,#116);
#116=COORDINATED_UNIVERSAL_TIME_OFFSET(0,0,.BEHIND.);
#117=AXIS2_PLACEMENT_3D('placement',#163,#131,#132);
#118=AXIS2_PLACEMENT_3D('',#164,#133,#134);
#119=AXIS2_PLACEMENT_3D('',#166,#135,#136);
#120=AXIS2_PLACEMENT_3D('',#169,#138,#139);
#121=AXIS2_PLACEMENT_3D('',#170,#140,#141);
#122=AXIS2_PLACEMENT_3D('',#173,#143,#144);
#123=AXIS2_PLACEMENT_3D('',#174,#145,#146);
#124=AXIS2_PLACEMENT_3D('',#175,#147,#148);
#125=AXIS2_PLACEMENT_3D('',#177,#149,#150);
#126=AXIS2_PLACEMENT_3D('',#180,#152,#153);
#127=AXIS2_PLACEMENT_3D('',#181,#154,#155);
#128=AXIS2_PLACEMENT_3D('',#184,#157,#158);
#129=AXIS2_PLACEMENT_3D('',#185,#159,#160);
#130=AXIS2_PLACEMENT_3D('',#186,#161,#162);
#131=DIRECTION('axis',(0.,0.,1.));
#132=DIRECTION('refdir',(1.,0.,0.));
#133=DIRECTION('center_axis',(0.,0.,1.));
#134=DIRECTION('ref_axis',(1.,0.,0.));
#135=DIRECTION('center_axis',(0.,0.,-1.));
#136=DIRECTION('ref_axis',(1.,0.,0.));
#137=DIRECTION('',(0.707106781186547,8.65956056235493E-17,-0.707106781186548));
#138=DIRECTION('center_axis',(0.,0.,1.));
#139=DIRECTION('ref_axis',(1.,0.,0.));
#140=DIRECTION('center_axis',(0.,0.,-1.));
#141=DIRECTION('ref_axis',(1.,0.,0.));
#142=DIRECTION('',(0.,0.,1.));
#143=DIRECTION('center_axis',(0.,0.,1.));
#144=DIRECTION('ref_axis',(1.,0.,0.));
#145=DIRECTION('center_axis',(0.,0.,1.));
#146=DIRECTION('ref_axis',(1.,0.,0.));
#147=DIRECTION('center_axis',(0.,0.,-1.));
#148=DIRECTION('ref_axis',(-1.,0.,0.));
#149=DIRECTION('center_axis',(0.,0.,1.));
#150=DIRECTION('ref_axis',(-1.,0.,0.));
#151=DIRECTION('',(-0.707106781186547,8.65956056235493E-17,0.707106781186548));
#152=DIRECTION('center_axis',(0.,0.,-1.));
#153=DIRECTION('ref_axis',(-1.,0.,0.));
#154=DIRECTION('center_axis',(0.,0.,1.));
#155=DIRECTION('ref_axis',(-1.,0.,0.));
#156=DIRECTION('',(0.,0.,-1.));
#157=DIRECTION('center_axis',(0.,0.,-1.));
#158=DIRECTION('ref_axis',(-1.,0.,0.));
#159=DIRECTION('center_axis',(0.,0.,-1.));
#160=DIRECTION('ref_axis',(-1.,0.,0.));
#161=DIRECTION('center_axis',(0.,0.,-1.));
#162=DIRECTION('ref_axis',(-1.,0.,0.));
#163=CARTESIAN_POINT('',(0.,0.,0.));
#164=CARTESIAN_POINT('Origin',(0.,0.,-19.75));
#165=CARTESIAN_POINT('',(-4.,4.898425E-16,-19.5));
#166=CARTESIAN_POINT('Origin',(0.,0.,-19.5));
#167=CARTESIAN_POINT('',(-3.5,-4.286122E-16,-20.));
#168=CARTESIAN_POINT('',(-3.75,-4.59242549680257E-16,-19.75));
#169=CARTESIAN_POINT('Origin',(0.,0.,-20.));
#170=CARTESIAN_POINT('Origin',(0.,0.,0.));
#171=CARTESIAN_POINT('',(-4.,4.898425E-16,0.));
#172=CARTESIAN_POINT('',(-4.,4.89858719658941E-16,0.));
#173=CARTESIAN_POINT('Origin',(0.,0.,0.));
#174=CARTESIAN_POINT('Origin',(0.,0.,-20.));
#175=CARTESIAN_POINT('Origin',(0.,0.,19.5));
#176=CARTESIAN_POINT('',(15.,1.83691E-15,19.));
#177=CARTESIAN_POINT('Origin',(0.,0.,19.));
#178=CARTESIAN_POINT('',(14.,-1.714449E-15,20.));
#179=CARTESIAN_POINT('',(14.5,-1.77573785876366E-15,19.5));
#180=CARTESIAN_POINT('Origin',(0.,0.,20.));
#181=CARTESIAN_POINT('Origin',(0.,0.,0.));
#182=CARTESIAN_POINT('',(15.,1.83691E-15,0.));
#183=CARTESIAN_POINT('',(15.,1.83697019872103E-15,0.));
#184=CARTESIAN_POINT('Origin',(0.,0.,0.));
#185=CARTESIAN_POINT('Origin',(0.,0.,20.));
#186=CARTESIAN_POINT('Origin',(0.,0.,0.));
#187=UNCERTAINTY_MEASURE_WITH_UNIT(LENGTH_MEASURE(0.01),#191,
'DISTANCE_ACCURACY_VALUE',
'Maximum model space distance between geometric entities at asserted c
onnectivities');
#188=UNCERTAINTY_MEASURE_WITH_UNIT(LENGTH_MEASURE(0.01),#191,
'DISTANCE_ACCURACY_VALUE',
'Maximum model space distance between geometric entities at asserted c
onnectivities');
#189=(
GEOMETRIC_REPRESENTATION_CONTEXT(3)
GLOBAL_UNCERTAINTY_ASSIGNED_CONTEXT((#187))
GLOBAL_UNIT_ASSIGNED_CONTEXT((#191,#193,#194))
REPRESENTATION_CONTEXT('','3D')
);
#190=(
GEOMETRIC_REPRESENTATION_CONTEXT(3)
GLOBAL_UNCERTAINTY_ASSIGNED_CONTEXT((#188))
GLOBAL_UNIT_ASSIGNED_CONTEXT((#191,#193,#194))
REPRESENTATION_CONTEXT('','3D')
);
#191=(
LENGTH_UNIT()
NAMED_UNIT(*)
SI_UNIT(.MILLI.,.METRE.)
);
#192=(
LENGTH_UNIT()
NAMED_UNIT(*)
SI_UNIT(.CENTI.,.METRE.)
);
#193=(
NAMED_UNIT(*)
PLANE_ANGLE_UNIT()
SI_UNIT($,.RADIAN.)
);
#194=(
NAMED_UNIT(*)
SI_UNIT($,.STERADIAN.)
SOLID_ANGLE_UNIT()
);
#195=SHAPE_DEFINITION_REPRESENTATION(#196,#197);
#196=PRODUCT_DEFINITION_SHAPE('',$,#199);
#197=SHAPE_REPRESENTATION('',(#117),#189);
#198=PRODUCT_DEFINITION_CONTEXT('part definition',#203,'design');
#199=PRODUCT_DEFINITION('A1PM3020','A1PM3020',#200,#198);
#200=PRODUCT_DEFINITION_FORMATION('A00',$,#205);
#201=PRODUCT_RELATED_PRODUCT_CATEGORY('A1PM3020','A1PM3020',(#205));
#202=APPLICATION_PROTOCOL_DEFINITION('international standard',
'automotive_design',2009,#203);
#203=APPLICATION_CONTEXT(
'Core Data for Automotive Mechanical Design Process');
#204=PRODUCT_CONTEXT('part definition',#203,'mechanical');
#205=PRODUCT('A1PM3020','A1PM3020',
'Puffer cilindrico A1PM 30X20 M8X20 60 SH',(#204));
#206=PRESENTATION_STYLE_ASSIGNMENT((#209));
#207=PRESENTATION_STYLE_ASSIGNMENT((#210));
#208=PRESENTATION_STYLE_ASSIGNMENT((#211));
#209=SURFACE_STYLE_USAGE(.BOTH.,#218);
#210=SURFACE_STYLE_USAGE(.BOTH.,#219);
#211=SURFACE_STYLE_USAGE(.BOTH.,#220);
#212=SURFACE_STYLE_RENDERING_WITH_PROPERTIES($,#230,(#215));
#213=SURFACE_STYLE_RENDERING_WITH_PROPERTIES($,#231,(#216));
#214=SURFACE_STYLE_RENDERING_WITH_PROPERTIES($,#232,(#217));
#215=SURFACE_STYLE_TRANSPARENT(0.);
#216=SURFACE_STYLE_TRANSPARENT(0.);
#217=SURFACE_STYLE_TRANSPARENT(0.);
#218=SURFACE_SIDE_STYLE('',(#221,#212));
#219=SURFACE_SIDE_STYLE('',(#222,#213));
#220=SURFACE_SIDE_STYLE('',(#223,#214));
#221=SURFACE_STYLE_FILL_AREA(#224);
#222=SURFACE_STYLE_FILL_AREA(#225);
#223=SURFACE_STYLE_FILL_AREA(#226);
#224=FILL_AREA_STYLE('',(#227));
#225=FILL_AREA_STYLE('',(#228));
#226=FILL_AREA_STYLE('',(#229));
#227=FILL_AREA_STYLE_COLOUR('',#230);
#228=FILL_AREA_STYLE_COLOUR('',#231);
#229=FILL_AREA_STYLE_COLOUR('',#232);
#230=COLOUR_RGB('',0.250980392156863,0.250980392156863,0.250980392156863);
#231=COLOUR_RGB('',0.258823529411765,0.258823529411765,0.258823529411765);
#232=COLOUR_RGB('',0.87843137254902,0.874509803921569,0.858823529411765);
ENDSEC;
END-ISO-10303-21;
