ISO-10303-21;
HEADER;
/* Generated by software containing ST-Developer
 * from STEP Tools, Inc. (www.steptools.com) 
 */

FILE_DESCRIPTION(
/* description */ (''),
/* implementation_level */ '2;1');

FILE_NAME(
/* name */ 
'C:\\Users\\Stefan.Nesic\\Desktop\\01010STEP\\nuovi\\A1PM2520-8.stp',
/* time_stamp */ '2022-07-02T10:15:36+02:00',
/* author */ ('stefan.nesic'),
/* organization */ (''),
/* preprocessor_version */ 'ST-DEVELOPER v18.1',
/* originating_system */ 'Autodesk Inventor 2021',
/* authorisation */ '');

FILE_SCHEMA (('AUTOMOTIVE_DESIGN { 1 0 10303 214 3 1 1 }'));
ENDSEC;

DATA;
#10=MECHANICAL_DESIGN_GEOMETRIC_PRESENTATION_REPRESENTATION('',(#15,#16,
#17,#18),#175);
#11=SHAPE_REPRESENTATION_RELATIONSHIP('SRR','None',#182,#12);
#12=ADVANCED_BREP_SHAPE_REPRESENTATION('',(#13),#174);
#13=MANIFOLD_SOLID_BREP('Solido1',#89);
#14=FACE_BOUND('',#36,.T.);
#15=STYLED_ITEM('',(#192),#86);
#16=STYLED_ITEM('',(#192),#87);
#17=STYLED_ITEM('',(#192),#88);
#18=STYLED_ITEM('',(#191),#13);
#19=PLANE('',#115);
#20=PLANE('',#119);
#21=PLANE('',#120);
#22=CYLINDRICAL_SURFACE('',#113,4.);
#23=CYLINDRICAL_SURFACE('',#116,12.5);
#24=FACE_OUTER_BOUND('',#30,.T.);
#25=FACE_OUTER_BOUND('',#31,.T.);
#26=FACE_OUTER_BOUND('',#32,.T.);
#27=FACE_OUTER_BOUND('',#33,.T.);
#28=FACE_OUTER_BOUND('',#34,.T.);
#29=FACE_OUTER_BOUND('',#35,.T.);
#30=EDGE_LOOP('',(#64,#65,#66,#67,#68));
#31=EDGE_LOOP('',(#69,#70,#71,#72,#73));
#32=EDGE_LOOP('',(#74));
#33=EDGE_LOOP('',(#75,#76,#77,#78));
#34=EDGE_LOOP('',(#79));
#35=EDGE_LOOP('',(#80));
#36=EDGE_LOOP('',(#81));
#37=LINE('',#155,#40);
#38=LINE('',#161,#41);
#39=LINE('',#168,#42);
#40=VECTOR('',#127,3.5);
#41=VECTOR('',#134,4.);
#42=VECTOR('',#143,12.5);
#43=CIRCLE('',#110,3.);
#44=CIRCLE('',#111,4.);
#45=CIRCLE('',#112,4.);
#46=CIRCLE('',#114,4.);
#47=CIRCLE('',#117,12.5);
#48=CIRCLE('',#118,12.5);
#49=VERTEX_POINT('',#152);
#50=VERTEX_POINT('',#154);
#51=VERTEX_POINT('',#156);
#52=VERTEX_POINT('',#160);
#53=VERTEX_POINT('',#165);
#54=VERTEX_POINT('',#167);
#55=EDGE_CURVE('',#49,#49,#43,.T.);
#56=EDGE_CURVE('',#49,#50,#37,.T.);
#57=EDGE_CURVE('',#50,#51,#44,.T.);
#58=EDGE_CURVE('',#51,#50,#45,.T.);
#59=EDGE_CURVE('',#51,#52,#38,.T.);
#60=EDGE_CURVE('',#52,#52,#46,.T.);
#61=EDGE_CURVE('',#53,#53,#47,.T.);
#62=EDGE_CURVE('',#53,#54,#39,.T.);
#63=EDGE_CURVE('',#54,#54,#48,.T.);
#64=ORIENTED_EDGE('',*,*,#55,.T.);
#65=ORIENTED_EDGE('',*,*,#56,.T.);
#66=ORIENTED_EDGE('',*,*,#57,.T.);
#67=ORIENTED_EDGE('',*,*,#58,.T.);
#68=ORIENTED_EDGE('',*,*,#56,.F.);
#69=ORIENTED_EDGE('',*,*,#57,.F.);
#70=ORIENTED_EDGE('',*,*,#58,.F.);
#71=ORIENTED_EDGE('',*,*,#59,.T.);
#72=ORIENTED_EDGE('',*,*,#60,.F.);
#73=ORIENTED_EDGE('',*,*,#59,.F.);
#74=ORIENTED_EDGE('',*,*,#55,.F.);
#75=ORIENTED_EDGE('',*,*,#61,.F.);
#76=ORIENTED_EDGE('',*,*,#62,.T.);
#77=ORIENTED_EDGE('',*,*,#63,.F.);
#78=ORIENTED_EDGE('',*,*,#62,.F.);
#79=ORIENTED_EDGE('',*,*,#63,.T.);
#80=ORIENTED_EDGE('',*,*,#61,.T.);
#81=ORIENTED_EDGE('',*,*,#60,.T.);
#82=CONICAL_SURFACE('',#109,3.5,0.78539816339745);
#83=ADVANCED_FACE('',(#24),#82,.T.);
#84=ADVANCED_FACE('',(#25),#22,.T.);
#85=ADVANCED_FACE('',(#26),#19,.T.);
#86=ADVANCED_FACE('',(#27),#23,.T.);
#87=ADVANCED_FACE('',(#28),#20,.F.);
#88=ADVANCED_FACE('',(#29,#14),#21,.T.);
#89=CLOSED_SHELL('',(#83,#84,#85,#86,#87,#88));
#90=DERIVED_UNIT_ELEMENT(#92,1.);
#91=DERIVED_UNIT_ELEMENT(#177,-3.);
#92=(
MASS_UNIT()
NAMED_UNIT(*)
SI_UNIT($,.GRAM.)
);
#93=DERIVED_UNIT((#90,#91));
#94=MEASURE_REPRESENTATION_ITEM('density measure',
POSITIVE_RATIO_MEASURE(1.),#93);
#95=PROPERTY_DEFINITION_REPRESENTATION(#100,#97);
#96=PROPERTY_DEFINITION_REPRESENTATION(#101,#98);
#97=REPRESENTATION('material name',(#99),#174);
#98=REPRESENTATION('density',(#94),#174);
#99=DESCRIPTIVE_REPRESENTATION_ITEM('Generico','Generico');
#100=PROPERTY_DEFINITION('material property','material name',#184);
#101=PROPERTY_DEFINITION('material property','density of part',#184);
#102=DATE_TIME_ROLE('creation_date');
#103=APPLIED_DATE_AND_TIME_ASSIGNMENT(#104,#102,(#184));
#104=DATE_AND_TIME(#105,#106);
#105=CALENDAR_DATE(2015,23,10);
#106=LOCAL_TIME(0,0,0.,#107);
#107=COORDINATED_UNIVERSAL_TIME_OFFSET(0,0,.BEHIND.);
#108=AXIS2_PLACEMENT_3D('placement',#150,#121,#122);
#109=AXIS2_PLACEMENT_3D('',#151,#123,#124);
#110=AXIS2_PLACEMENT_3D('',#153,#125,#126);
#111=AXIS2_PLACEMENT_3D('',#157,#128,#129);
#112=AXIS2_PLACEMENT_3D('',#158,#130,#131);
#113=AXIS2_PLACEMENT_3D('',#159,#132,#133);
#114=AXIS2_PLACEMENT_3D('',#162,#135,#136);
#115=AXIS2_PLACEMENT_3D('',#163,#137,#138);
#116=AXIS2_PLACEMENT_3D('',#164,#139,#140);
#117=AXIS2_PLACEMENT_3D('',#166,#141,#142);
#118=AXIS2_PLACEMENT_3D('',#169,#144,#145);
#119=AXIS2_PLACEMENT_3D('',#170,#146,#147);
#120=AXIS2_PLACEMENT_3D('',#171,#148,#149);
#121=DIRECTION('axis',(0.,0.,1.));
#122=DIRECTION('refdir',(1.,0.,0.));
#123=DIRECTION('center_axis',(-1.,0.,0.));
#124=DIRECTION('ref_axis',(0.,0.,1.));
#125=DIRECTION('center_axis',(-1.,0.,0.));
#126=DIRECTION('ref_axis',(0.,0.,1.));
#127=DIRECTION('',(-0.707106781186546,8.65956056235495E-17,-0.707106781186549));
#128=DIRECTION('center_axis',(1.,0.,0.));
#129=DIRECTION('ref_axis',(0.,0.,1.));
#130=DIRECTION('center_axis',(1.,0.,0.));
#131=DIRECTION('ref_axis',(0.,0.,1.));
#132=DIRECTION('center_axis',(1.,0.,0.));
#133=DIRECTION('ref_axis',(0.,0.,-1.));
#134=DIRECTION('',(-1.,0.,0.));
#135=DIRECTION('center_axis',(-1.,0.,0.));
#136=DIRECTION('ref_axis',(0.,0.,-1.));
#137=DIRECTION('center_axis',(1.,0.,0.));
#138=DIRECTION('ref_axis',(0.,0.,-1.));
#139=DIRECTION('center_axis',(1.,0.,0.));
#140=DIRECTION('ref_axis',(0.,-1.,0.));
#141=DIRECTION('center_axis',(1.,0.,0.));
#142=DIRECTION('ref_axis',(0.,-1.,0.));
#143=DIRECTION('',(-1.,0.,0.));
#144=DIRECTION('center_axis',(-1.,0.,0.));
#145=DIRECTION('ref_axis',(0.,-1.,0.));
#146=DIRECTION('center_axis',(1.,0.,0.));
#147=DIRECTION('ref_axis',(0.,0.,-1.));
#148=DIRECTION('center_axis',(1.,0.,0.));
#149=DIRECTION('ref_axis',(0.,0.,-1.));
#150=CARTESIAN_POINT('',(0.,0.,0.));
#151=CARTESIAN_POINT('Origin',(42.5,0.,0.));
#152=CARTESIAN_POINT('',(43.,-3.67394039744206E-16,-3.));
#153=CARTESIAN_POINT('Origin',(43.,0.,0.));
#154=CARTESIAN_POINT('',(42.,4.89858719658941E-16,-4.));
#155=CARTESIAN_POINT('',(42.5,4.28626379701574E-16,-3.5));
#156=CARTESIAN_POINT('',(42.,-4.89858719658941E-16,4.));
#157=CARTESIAN_POINT('Origin',(42.,0.,0.));
#158=CARTESIAN_POINT('Origin',(42.,0.,0.));
#159=CARTESIAN_POINT('Origin',(20.,0.,0.));
#160=CARTESIAN_POINT('',(20.,-4.89858719658941E-16,4.));
#161=CARTESIAN_POINT('',(20.,-4.89858719658941E-16,4.));
#162=CARTESIAN_POINT('Origin',(20.,0.,0.));
#163=CARTESIAN_POINT('Origin',(43.,0.,0.));
#164=CARTESIAN_POINT('Origin',(0.,0.,0.));
#165=CARTESIAN_POINT('',(20.,12.5,1.53080849893419E-15));
#166=CARTESIAN_POINT('Origin',(20.,0.,0.));
#167=CARTESIAN_POINT('',(0.,12.5,1.53080849893419E-15));
#168=CARTESIAN_POINT('',(0.,12.5,1.53080849893419E-15));
#169=CARTESIAN_POINT('Origin',(0.,0.,0.));
#170=CARTESIAN_POINT('Origin',(0.,-1.31180526784468E-15,2.96059473233375E-16));
#171=CARTESIAN_POINT('Origin',(20.,-1.31180526784468E-15,2.96059473233375E-16));
#172=UNCERTAINTY_MEASURE_WITH_UNIT(LENGTH_MEASURE(0.01),#176,
'DISTANCE_ACCURACY_VALUE',
'Maximum model space distance between geometric entities at asserted c
onnectivities');
#173=UNCERTAINTY_MEASURE_WITH_UNIT(LENGTH_MEASURE(0.01),#176,
'DISTANCE_ACCURACY_VALUE',
'Maximum model space distance between geometric entities at asserted c
onnectivities');
#174=(
GEOMETRIC_REPRESENTATION_CONTEXT(3)
GLOBAL_UNCERTAINTY_ASSIGNED_CONTEXT((#172))
GLOBAL_UNIT_ASSIGNED_CONTEXT((#176,#178,#179))
REPRESENTATION_CONTEXT('','3D')
);
#175=(
GEOMETRIC_REPRESENTATION_CONTEXT(3)
GLOBAL_UNCERTAINTY_ASSIGNED_CONTEXT((#173))
GLOBAL_UNIT_ASSIGNED_CONTEXT((#176,#178,#179))
REPRESENTATION_CONTEXT('','3D')
);
#176=(
LENGTH_UNIT()
NAMED_UNIT(*)
SI_UNIT(.MILLI.,.METRE.)
);
#177=(
LENGTH_UNIT()
NAMED_UNIT(*)
SI_UNIT(.CENTI.,.METRE.)
);
#178=(
NAMED_UNIT(*)
PLANE_ANGLE_UNIT()
SI_UNIT($,.RADIAN.)
);
#179=(
NAMED_UNIT(*)
SI_UNIT($,.STERADIAN.)
SOLID_ANGLE_UNIT()
);
#180=SHAPE_DEFINITION_REPRESENTATION(#181,#182);
#181=PRODUCT_DEFINITION_SHAPE('',$,#184);
#182=SHAPE_REPRESENTATION('',(#108),#174);
#183=PRODUCT_DEFINITION_CONTEXT('part definition',#188,'design');
#184=PRODUCT_DEFINITION('A1PM2530-8.1','A1PM2530-8.1',#185,#183);
#185=PRODUCT_DEFINITION_FORMATION('A00',$,#190);
#186=PRODUCT_RELATED_PRODUCT_CATEGORY('A1PM2530-8.1','A1PM2530-8.1',(#190));
#187=APPLICATION_PROTOCOL_DEFINITION('international standard',
'automotive_design',2009,#188);
#188=APPLICATION_CONTEXT(
'Core Data for Automotive Mechanical Design Process');
#189=PRODUCT_CONTEXT('part definition',#188,'mechanical');
#190=PRODUCT('A1PM2530-8.1','A1PM2530-8.1',$,(#189));
#191=PRESENTATION_STYLE_ASSIGNMENT((#193));
#192=PRESENTATION_STYLE_ASSIGNMENT((#194));
#193=SURFACE_STYLE_USAGE(.BOTH.,#199);
#194=SURFACE_STYLE_USAGE(.BOTH.,#200);
#195=SURFACE_STYLE_RENDERING_WITH_PROPERTIES($,#207,(#197));
#196=SURFACE_STYLE_RENDERING_WITH_PROPERTIES($,#208,(#198));
#197=SURFACE_STYLE_TRANSPARENT(0.);
#198=SURFACE_STYLE_TRANSPARENT(0.);
#199=SURFACE_SIDE_STYLE('',(#201,#195));
#200=SURFACE_SIDE_STYLE('',(#202,#196));
#201=SURFACE_STYLE_FILL_AREA(#203);
#202=SURFACE_STYLE_FILL_AREA(#204);
#203=FILL_AREA_STYLE('',(#205));
#204=FILL_AREA_STYLE('',(#206));
#205=FILL_AREA_STYLE_COLOUR('',#207);
#206=FILL_AREA_STYLE_COLOUR('',#208);
#207=COLOUR_RGB('',0.749019607843137,0.749019607843137,0.749019607843137);
#208=COLOUR_RGB('',0.,0.,0.);
ENDSEC;
END-ISO-10303-21;
