ISO-10303-21;
HEADER;
/* Generated by software containing ST-Developer
 * from STEP Tools, Inc. (www.steptools.com) 
 */

FILE_DESCRIPTION(
/* description */ (''),
/* implementation_level */ '2;1');

FILE_NAME(
/* name */ 'C:\\Users\\Stefan.Nesic\\Desktop\\01010STEP\\A1PM2030.stp',

/* time_stamp */ '2022-06-23T12:06:23+02:00',
/* author */ ('stefan.nesic'),
/* organization */ (''),
/* preprocessor_version */ 'ST-DEVELOPER v18.1',
/* originating_system */ 'Autodesk Inventor 2021',
/* authorisation */ '');

FILE_SCHEMA (('AUTOMOTIVE_DESIGN { 1 0 10303 214 3 1 1 }'));
ENDSEC;

DATA;
#10=MECHANICAL_DESIGN_GEOMETRIC_PRESENTATION_REPRESENTATION('',(#15,#16,
#17,#18),#140);
#11=SHAPE_REPRESENTATION_RELATIONSHIP('SRR','None',#147,#12);
#12=ADVANCED_BREP_SHAPE_REPRESENTATION('',(#13),#139);
#13=MANIFOLD_SOLID_BREP('Solido1',#70);
#14=FACE_BOUND('',#32,.T.);
#15=STYLED_ITEM('',(#157),#67);
#16=STYLED_ITEM('',(#157),#68);
#17=STYLED_ITEM('',(#157),#69);
#18=STYLED_ITEM('',(#156),#13);
#19=PLANE('',#93);
#20=PLANE('',#97);
#21=PLANE('',#98);
#22=FACE_OUTER_BOUND('',#27,.T.);
#23=FACE_OUTER_BOUND('',#28,.T.);
#24=FACE_OUTER_BOUND('',#29,.T.);
#25=FACE_OUTER_BOUND('',#30,.T.);
#26=FACE_OUTER_BOUND('',#31,.T.);
#27=EDGE_LOOP('',(#51,#52,#53,#54));
#28=EDGE_LOOP('',(#55));
#29=EDGE_LOOP('',(#56,#57,#58,#59));
#30=EDGE_LOOP('',(#60));
#31=EDGE_LOOP('',(#61));
#32=EDGE_LOOP('',(#62));
#33=LINE('',#126,#35);
#34=LINE('',#133,#36);
#35=VECTOR('',#105,3.);
#36=VECTOR('',#114,10.);
#37=CIRCLE('',#91,3.);
#38=CIRCLE('',#92,3.);
#39=CIRCLE('',#95,10.);
#40=CIRCLE('',#96,10.);
#41=VERTEX_POINT('',#123);
#42=VERTEX_POINT('',#125);
#43=VERTEX_POINT('',#130);
#44=VERTEX_POINT('',#132);
#45=EDGE_CURVE('',#41,#41,#37,.T.);
#46=EDGE_CURVE('',#41,#42,#33,.T.);
#47=EDGE_CURVE('',#42,#42,#38,.T.);
#48=EDGE_CURVE('',#43,#43,#39,.T.);
#49=EDGE_CURVE('',#43,#44,#34,.T.);
#50=EDGE_CURVE('',#44,#44,#40,.T.);
#51=ORIENTED_EDGE('',*,*,#45,.F.);
#52=ORIENTED_EDGE('',*,*,#46,.T.);
#53=ORIENTED_EDGE('',*,*,#47,.F.);
#54=ORIENTED_EDGE('',*,*,#46,.F.);
#55=ORIENTED_EDGE('',*,*,#45,.T.);
#56=ORIENTED_EDGE('',*,*,#48,.F.);
#57=ORIENTED_EDGE('',*,*,#49,.T.);
#58=ORIENTED_EDGE('',*,*,#50,.T.);
#59=ORIENTED_EDGE('',*,*,#49,.F.);
#60=ORIENTED_EDGE('',*,*,#48,.T.);
#61=ORIENTED_EDGE('',*,*,#50,.F.);
#62=ORIENTED_EDGE('',*,*,#47,.T.);
#63=CYLINDRICAL_SURFACE('',#90,3.);
#64=CYLINDRICAL_SURFACE('',#94,10.);
#65=ADVANCED_FACE('',(#22),#63,.T.);
#66=ADVANCED_FACE('',(#23),#19,.T.);
#67=ADVANCED_FACE('',(#24),#64,.T.);
#68=ADVANCED_FACE('',(#25),#20,.T.);
#69=ADVANCED_FACE('',(#26,#14),#21,.F.);
#70=CLOSED_SHELL('',(#65,#66,#67,#68,#69));
#71=DERIVED_UNIT_ELEMENT(#73,1.);
#72=DERIVED_UNIT_ELEMENT(#142,-3.);
#73=(
MASS_UNIT()
NAMED_UNIT(*)
SI_UNIT($,.GRAM.)
);
#74=DERIVED_UNIT((#71,#72));
#75=MEASURE_REPRESENTATION_ITEM('density measure',
POSITIVE_RATIO_MEASURE(1.),#74);
#76=PROPERTY_DEFINITION_REPRESENTATION(#81,#78);
#77=PROPERTY_DEFINITION_REPRESENTATION(#82,#79);
#78=REPRESENTATION('material name',(#80),#139);
#79=REPRESENTATION('density',(#75),#139);
#80=DESCRIPTIVE_REPRESENTATION_ITEM('Generico','Generico');
#81=PROPERTY_DEFINITION('material property','material name',#149);
#82=PROPERTY_DEFINITION('material property','density of part',#149);
#83=DATE_TIME_ROLE('creation_date');
#84=APPLIED_DATE_AND_TIME_ASSIGNMENT(#85,#83,(#149));
#85=DATE_AND_TIME(#86,#87);
#86=CALENDAR_DATE(2022,23,6);
#87=LOCAL_TIME(0,0,0.,#88);
#88=COORDINATED_UNIVERSAL_TIME_OFFSET(0,0,.BEHIND.);
#89=AXIS2_PLACEMENT_3D('placement',#121,#99,#100);
#90=AXIS2_PLACEMENT_3D('',#122,#101,#102);
#91=AXIS2_PLACEMENT_3D('',#124,#103,#104);
#92=AXIS2_PLACEMENT_3D('',#127,#106,#107);
#93=AXIS2_PLACEMENT_3D('',#128,#108,#109);
#94=AXIS2_PLACEMENT_3D('',#129,#110,#111);
#95=AXIS2_PLACEMENT_3D('',#131,#112,#113);
#96=AXIS2_PLACEMENT_3D('',#134,#115,#116);
#97=AXIS2_PLACEMENT_3D('',#135,#117,#118);
#98=AXIS2_PLACEMENT_3D('',#136,#119,#120);
#99=DIRECTION('axis',(0.,0.,1.));
#100=DIRECTION('refdir',(1.,0.,0.));
#101=DIRECTION('center_axis',(0.,-1.,0.));
#102=DIRECTION('ref_axis',(1.,0.,0.));
#103=DIRECTION('center_axis',(0.,-1.,0.));
#104=DIRECTION('ref_axis',(1.,0.,0.));
#105=DIRECTION('',(0.,1.,0.));
#106=DIRECTION('center_axis',(0.,1.,0.));
#107=DIRECTION('ref_axis',(1.,0.,0.));
#108=DIRECTION('center_axis',(0.,-1.,0.));
#109=DIRECTION('ref_axis',(0.,0.,-1.));
#110=DIRECTION('center_axis',(0.,1.,0.));
#111=DIRECTION('ref_axis',(-1.,0.,0.));
#112=DIRECTION('center_axis',(0.,1.,0.));
#113=DIRECTION('ref_axis',(-1.,0.,0.));
#114=DIRECTION('',(0.,-1.,0.));
#115=DIRECTION('center_axis',(0.,1.,0.));
#116=DIRECTION('ref_axis',(-1.,0.,0.));
#117=DIRECTION('center_axis',(0.,1.,0.));
#118=DIRECTION('ref_axis',(0.,0.,1.));
#119=DIRECTION('center_axis',(0.,1.,0.));
#120=DIRECTION('ref_axis',(0.,0.,1.));
#121=CARTESIAN_POINT('',(0.,0.,0.));
#122=CARTESIAN_POINT('Origin',(0.,0.,0.));
#123=CARTESIAN_POINT('',(-3.,-16.,-3.67394039744206E-16));
#124=CARTESIAN_POINT('Origin',(0.,-16.,0.));
#125=CARTESIAN_POINT('',(-3.,0.,-3.67394039744206E-16));
#126=CARTESIAN_POINT('',(-3.,0.,-3.67394039744206E-16));
#127=CARTESIAN_POINT('Origin',(0.,0.,0.));
#128=CARTESIAN_POINT('Origin',(0.,-16.,0.));
#129=CARTESIAN_POINT('Origin',(0.,0.,0.));
#130=CARTESIAN_POINT('',(10.,30.,-1.22464679914735E-15));
#131=CARTESIAN_POINT('Origin',(0.,30.,0.));
#132=CARTESIAN_POINT('',(10.,0.,-1.22464679914735E-15));
#133=CARTESIAN_POINT('',(10.,0.,-1.22464679914735E-15));
#134=CARTESIAN_POINT('Origin',(0.,0.,0.));
#135=CARTESIAN_POINT('Origin',(0.,30.,0.));
#136=CARTESIAN_POINT('Origin',(0.,0.,0.));
#137=UNCERTAINTY_MEASURE_WITH_UNIT(LENGTH_MEASURE(0.01),#141,
'DISTANCE_ACCURACY_VALUE',
'Maximum model space distance between geometric entities at asserted c
onnectivities');
#138=UNCERTAINTY_MEASURE_WITH_UNIT(LENGTH_MEASURE(0.01),#141,
'DISTANCE_ACCURACY_VALUE',
'Maximum model space distance between geometric entities at asserted c
onnectivities');
#139=(
GEOMETRIC_REPRESENTATION_CONTEXT(3)
GLOBAL_UNCERTAINTY_ASSIGNED_CONTEXT((#137))
GLOBAL_UNIT_ASSIGNED_CONTEXT((#141,#143,#144))
REPRESENTATION_CONTEXT('','3D')
);
#140=(
GEOMETRIC_REPRESENTATION_CONTEXT(3)
GLOBAL_UNCERTAINTY_ASSIGNED_CONTEXT((#138))
GLOBAL_UNIT_ASSIGNED_CONTEXT((#141,#143,#144))
REPRESENTATION_CONTEXT('','3D')
);
#141=(
LENGTH_UNIT()
NAMED_UNIT(*)
SI_UNIT(.MILLI.,.METRE.)
);
#142=(
LENGTH_UNIT()
NAMED_UNIT(*)
SI_UNIT(.CENTI.,.METRE.)
);
#143=(
NAMED_UNIT(*)
PLANE_ANGLE_UNIT()
SI_UNIT($,.RADIAN.)
);
#144=(
NAMED_UNIT(*)
SI_UNIT($,.STERADIAN.)
SOLID_ANGLE_UNIT()
);
#145=SHAPE_DEFINITION_REPRESENTATION(#146,#147);
#146=PRODUCT_DEFINITION_SHAPE('',$,#149);
#147=SHAPE_REPRESENTATION('',(#89),#139);
#148=PRODUCT_DEFINITION_CONTEXT('part definition',#153,'design');
#149=PRODUCT_DEFINITION('Parte87','Parte87',#150,#148);
#150=PRODUCT_DEFINITION_FORMATION('',$,#155);
#151=PRODUCT_RELATED_PRODUCT_CATEGORY('Parte87','Parte87',(#155));
#152=APPLICATION_PROTOCOL_DEFINITION('international standard',
'automotive_design',2009,#153);
#153=APPLICATION_CONTEXT(
'Core Data for Automotive Mechanical Design Process');
#154=PRODUCT_CONTEXT('part definition',#153,'mechanical');
#155=PRODUCT('Parte87','Parte87',$,(#154));
#156=PRESENTATION_STYLE_ASSIGNMENT((#158));
#157=PRESENTATION_STYLE_ASSIGNMENT((#159));
#158=SURFACE_STYLE_USAGE(.BOTH.,#164);
#159=SURFACE_STYLE_USAGE(.BOTH.,#165);
#160=SURFACE_STYLE_RENDERING_WITH_PROPERTIES($,#172,(#162));
#161=SURFACE_STYLE_RENDERING_WITH_PROPERTIES($,#173,(#163));
#162=SURFACE_STYLE_TRANSPARENT(0.);
#163=SURFACE_STYLE_TRANSPARENT(0.);
#164=SURFACE_SIDE_STYLE('',(#166,#160));
#165=SURFACE_SIDE_STYLE('',(#167,#161));
#166=SURFACE_STYLE_FILL_AREA(#168);
#167=SURFACE_STYLE_FILL_AREA(#169);
#168=FILL_AREA_STYLE('',(#170));
#169=FILL_AREA_STYLE('',(#171));
#170=FILL_AREA_STYLE_COLOUR('',#172);
#171=FILL_AREA_STYLE_COLOUR('',#173);
#172=COLOUR_RGB('',0.749019607843137,0.749019607843137,0.749019607843137);
#173=COLOUR_RGB('',0.0588235294117647,0.0588235294117647,0.0588235294117647);
ENDSEC;
END-ISO-10303-21;
