ISO-10303-21;
HEADER;
/* Generated by software containing ST-Developer
 * from STEP Tools, Inc. (www.steptools.com) 
 */

FILE_DESCRIPTION(
/* description */ ('Puffer cilindrico A1PM 15X10 M4X10 60 SH'),
/* implementation_level */ '2;1');

FILE_NAME(
/* name */ 
'C:\\Users\\Stefan.Nesic\\Desktop\\01010 STEP da zippare\\A1PM1510.stp',

/* time_stamp */ '2022-06-17T12:04:31+02:00',
/* author */ ('Davide'),
/* organization */ (''),
/* preprocessor_version */ 'ST-DEVELOPER v18.1',
/* originating_system */ 'Autodesk Inventor 2021',
/* authorisation */ '');

FILE_SCHEMA (('AUTOMOTIVE_DESIGN { 1 0 10303 214 3 1 1 }'));
ENDSEC;

DATA;
#10=MECHANICAL_DESIGN_GEOMETRIC_PRESENTATION_REPRESENTATION('',(#15,#16,
#17),#139);
#11=SHAPE_REPRESENTATION_RELATIONSHIP('SRR','None',#146,#12);
#12=ADVANCED_BREP_SHAPE_REPRESENTATION('',(#13),#138);
#13=MANIFOLD_SOLID_BREP('Solido1',#69);
#14=FACE_BOUND('',#31,.T.);
#15=STYLED_ITEM('',(#156),#66);
#16=STYLED_ITEM('',(#156),#67);
#17=STYLED_ITEM('',(#155),#13);
#18=PLANE('',#92);
#19=PLANE('',#96);
#20=PLANE('',#97);
#21=FACE_OUTER_BOUND('',#26,.T.);
#22=FACE_OUTER_BOUND('',#27,.T.);
#23=FACE_OUTER_BOUND('',#28,.T.);
#24=FACE_OUTER_BOUND('',#29,.T.);
#25=FACE_OUTER_BOUND('',#30,.T.);
#26=EDGE_LOOP('',(#50,#51,#52,#53));
#27=EDGE_LOOP('',(#54));
#28=EDGE_LOOP('',(#55,#56,#57,#58));
#29=EDGE_LOOP('',(#59));
#30=EDGE_LOOP('',(#60));
#31=EDGE_LOOP('',(#61));
#32=LINE('',#125,#34);
#33=LINE('',#132,#35);
#34=VECTOR('',#104,2.);
#35=VECTOR('',#113,7.5);
#36=CIRCLE('',#90,2.);
#37=CIRCLE('',#91,2.);
#38=CIRCLE('',#94,7.5);
#39=CIRCLE('',#95,7.5);
#40=VERTEX_POINT('',#122);
#41=VERTEX_POINT('',#124);
#42=VERTEX_POINT('',#129);
#43=VERTEX_POINT('',#131);
#44=EDGE_CURVE('',#40,#40,#36,.T.);
#45=EDGE_CURVE('',#40,#41,#32,.T.);
#46=EDGE_CURVE('',#41,#41,#37,.T.);
#47=EDGE_CURVE('',#42,#42,#38,.T.);
#48=EDGE_CURVE('',#42,#43,#33,.T.);
#49=EDGE_CURVE('',#43,#43,#39,.T.);
#50=ORIENTED_EDGE('',*,*,#44,.F.);
#51=ORIENTED_EDGE('',*,*,#45,.T.);
#52=ORIENTED_EDGE('',*,*,#46,.F.);
#53=ORIENTED_EDGE('',*,*,#45,.F.);
#54=ORIENTED_EDGE('',*,*,#44,.T.);
#55=ORIENTED_EDGE('',*,*,#47,.F.);
#56=ORIENTED_EDGE('',*,*,#48,.T.);
#57=ORIENTED_EDGE('',*,*,#49,.F.);
#58=ORIENTED_EDGE('',*,*,#48,.F.);
#59=ORIENTED_EDGE('',*,*,#49,.T.);
#60=ORIENTED_EDGE('',*,*,#47,.T.);
#61=ORIENTED_EDGE('',*,*,#46,.T.);
#62=CYLINDRICAL_SURFACE('',#89,2.);
#63=CYLINDRICAL_SURFACE('',#93,7.5);
#64=ADVANCED_FACE('',(#21),#62,.T.);
#65=ADVANCED_FACE('',(#22),#18,.T.);
#66=ADVANCED_FACE('',(#23),#63,.T.);
#67=ADVANCED_FACE('',(#24),#19,.F.);
#68=ADVANCED_FACE('',(#25,#14),#20,.T.);
#69=CLOSED_SHELL('',(#64,#65,#66,#67,#68));
#70=DERIVED_UNIT_ELEMENT(#72,1.);
#71=DERIVED_UNIT_ELEMENT(#141,-3.);
#72=(
MASS_UNIT()
NAMED_UNIT(*)
SI_UNIT($,.GRAM.)
);
#73=DERIVED_UNIT((#70,#71));
#74=MEASURE_REPRESENTATION_ITEM('density measure',
POSITIVE_RATIO_MEASURE(1.),#73);
#75=PROPERTY_DEFINITION_REPRESENTATION(#80,#77);
#76=PROPERTY_DEFINITION_REPRESENTATION(#81,#78);
#77=REPRESENTATION('material name',(#79),#138);
#78=REPRESENTATION('density',(#74),#138);
#79=DESCRIPTIVE_REPRESENTATION_ITEM('Generico','Generico');
#80=PROPERTY_DEFINITION('material property','material name',#148);
#81=PROPERTY_DEFINITION('material property','density of part',#148);
#82=DATE_TIME_ROLE('creation_date');
#83=APPLIED_DATE_AND_TIME_ASSIGNMENT(#84,#82,(#148));
#84=DATE_AND_TIME(#85,#86);
#85=CALENDAR_DATE(2017,20,7);
#86=LOCAL_TIME(0,0,0.,#87);
#87=COORDINATED_UNIVERSAL_TIME_OFFSET(0,0,.BEHIND.);
#88=AXIS2_PLACEMENT_3D('placement',#120,#98,#99);
#89=AXIS2_PLACEMENT_3D('',#121,#100,#101);
#90=AXIS2_PLACEMENT_3D('',#123,#102,#103);
#91=AXIS2_PLACEMENT_3D('',#126,#105,#106);
#92=AXIS2_PLACEMENT_3D('',#127,#107,#108);
#93=AXIS2_PLACEMENT_3D('',#128,#109,#110);
#94=AXIS2_PLACEMENT_3D('',#130,#111,#112);
#95=AXIS2_PLACEMENT_3D('',#133,#114,#115);
#96=AXIS2_PLACEMENT_3D('',#134,#116,#117);
#97=AXIS2_PLACEMENT_3D('',#135,#118,#119);
#98=DIRECTION('axis',(0.,0.,1.));
#99=DIRECTION('refdir',(1.,0.,0.));
#100=DIRECTION('center_axis',(0.,1.,0.));
#101=DIRECTION('ref_axis',(-1.,0.,0.));
#102=DIRECTION('center_axis',(0.,1.,0.));
#103=DIRECTION('ref_axis',(-1.,0.,0.));
#104=DIRECTION('',(0.,-1.,0.));
#105=DIRECTION('center_axis',(0.,-1.,0.));
#106=DIRECTION('ref_axis',(-1.,0.,0.));
#107=DIRECTION('center_axis',(0.,1.,0.));
#108=DIRECTION('ref_axis',(0.,0.,1.));
#109=DIRECTION('center_axis',(0.,1.,0.));
#110=DIRECTION('ref_axis',(1.,0.,0.));
#111=DIRECTION('center_axis',(0.,1.,0.));
#112=DIRECTION('ref_axis',(1.,0.,0.));
#113=DIRECTION('',(0.,-1.,0.));
#114=DIRECTION('center_axis',(0.,-1.,0.));
#115=DIRECTION('ref_axis',(1.,0.,0.));
#116=DIRECTION('center_axis',(0.,1.,0.));
#117=DIRECTION('ref_axis',(0.,0.,1.));
#118=DIRECTION('center_axis',(0.,1.,0.));
#119=DIRECTION('ref_axis',(0.,0.,1.));
#120=CARTESIAN_POINT('',(0.,0.,0.));
#121=CARTESIAN_POINT('Origin',(0.,10.,0.));
#122=CARTESIAN_POINT('',(2.,20.,-2.44929359829471E-16));
#123=CARTESIAN_POINT('Origin',(0.,20.,0.));
#124=CARTESIAN_POINT('',(2.,10.,-2.44929359829471E-16));
#125=CARTESIAN_POINT('',(2.,10.,-2.44929359829471E-16));
#126=CARTESIAN_POINT('Origin',(0.,10.,0.));
#127=CARTESIAN_POINT('Origin',(-1.9388312758347E-16,20.,2.89120579329468E-17));
#128=CARTESIAN_POINT('Origin',(0.,0.,0.));
#129=CARTESIAN_POINT('',(-7.5,10.,9.18485099360515E-16));
#130=CARTESIAN_POINT('Origin',(0.,10.,0.));
#131=CARTESIAN_POINT('',(-7.5,0.,9.18485099360515E-16));
#132=CARTESIAN_POINT('',(-7.5,0.,9.18485099360515E-16));
#133=CARTESIAN_POINT('Origin',(0.,0.,0.));
#134=CARTESIAN_POINT('Origin',(5.69972880335668E-16,0.,-1.2335811384724E-16));
#135=CARTESIAN_POINT('Origin',(5.69972880335668E-16,10.,-1.2335811384724E-16));
#136=UNCERTAINTY_MEASURE_WITH_UNIT(LENGTH_MEASURE(0.01),#140,
'DISTANCE_ACCURACY_VALUE',
'Maximum model space distance between geometric entities at asserted c
onnectivities');
#137=UNCERTAINTY_MEASURE_WITH_UNIT(LENGTH_MEASURE(0.01),#140,
'DISTANCE_ACCURACY_VALUE',
'Maximum model space distance between geometric entities at asserted c
onnectivities');
#138=(
GEOMETRIC_REPRESENTATION_CONTEXT(3)
GLOBAL_UNCERTAINTY_ASSIGNED_CONTEXT((#136))
GLOBAL_UNIT_ASSIGNED_CONTEXT((#140,#142,#143))
REPRESENTATION_CONTEXT('','3D')
);
#139=(
GEOMETRIC_REPRESENTATION_CONTEXT(3)
GLOBAL_UNCERTAINTY_ASSIGNED_CONTEXT((#137))
GLOBAL_UNIT_ASSIGNED_CONTEXT((#140,#142,#143))
REPRESENTATION_CONTEXT('','3D')
);
#140=(
LENGTH_UNIT()
NAMED_UNIT(*)
SI_UNIT(.MILLI.,.METRE.)
);
#141=(
LENGTH_UNIT()
NAMED_UNIT(*)
SI_UNIT(.CENTI.,.METRE.)
);
#142=(
NAMED_UNIT(*)
PLANE_ANGLE_UNIT()
SI_UNIT($,.RADIAN.)
);
#143=(
NAMED_UNIT(*)
SI_UNIT($,.STERADIAN.)
SOLID_ANGLE_UNIT()
);
#144=SHAPE_DEFINITION_REPRESENTATION(#145,#146);
#145=PRODUCT_DEFINITION_SHAPE('',$,#148);
#146=SHAPE_REPRESENTATION('',(#88),#138);
#147=PRODUCT_DEFINITION_CONTEXT('part definition',#152,'design');
#148=PRODUCT_DEFINITION('A1PM1510','A1PM1510',#149,#147);
#149=PRODUCT_DEFINITION_FORMATION('A00',$,#154);
#150=PRODUCT_RELATED_PRODUCT_CATEGORY('A1PM1510','A1PM1510',(#154));
#151=APPLICATION_PROTOCOL_DEFINITION('international standard',
'automotive_design',2009,#152);
#152=APPLICATION_CONTEXT(
'Core Data for Automotive Mechanical Design Process');
#153=PRODUCT_CONTEXT('part definition',#152,'mechanical');
#154=PRODUCT('A1PM1510','A1PM1510',
'Puffer cilindrico A1PM 15X10 M4X10 60 SH',(#153));
#155=PRESENTATION_STYLE_ASSIGNMENT((#157));
#156=PRESENTATION_STYLE_ASSIGNMENT((#158));
#157=SURFACE_STYLE_USAGE(.BOTH.,#163);
#158=SURFACE_STYLE_USAGE(.BOTH.,#164);
#159=SURFACE_STYLE_RENDERING_WITH_PROPERTIES($,#171,(#161));
#160=SURFACE_STYLE_RENDERING_WITH_PROPERTIES($,#172,(#162));
#161=SURFACE_STYLE_TRANSPARENT(0.);
#162=SURFACE_STYLE_TRANSPARENT(0.);
#163=SURFACE_SIDE_STYLE('',(#165,#159));
#164=SURFACE_SIDE_STYLE('',(#166,#160));
#165=SURFACE_STYLE_FILL_AREA(#167);
#166=SURFACE_STYLE_FILL_AREA(#168);
#167=FILL_AREA_STYLE('',(#169));
#168=FILL_AREA_STYLE('',(#170));
#169=FILL_AREA_STYLE_COLOUR('',#171);
#170=FILL_AREA_STYLE_COLOUR('',#172);
#171=COLOUR_RGB('',0.749019607843137,0.749019607843137,0.749019607843137);
#172=COLOUR_RGB('',0.250980392156863,0.250980392156863,0.250980392156863);
ENDSEC;
END-ISO-10303-21;
